Oops, an error
Loading. Please wait.

La Polvadera tab

version 1
version 1

Whole song

40 views 1 this week
no commentswrite comment
1 2 3 4 5
3 more votes to show rating
add to favorites
×
Save as Personal and add changes to this tab that will be seen only by you. Learn more ›
×
You can save this tab as Personal to edit and correct it or add notes. All changes will be seen only by you. Learn more »
launch autoscroll
font size
0
reset
how to read this tab
guitar tuner
edit
Autoscroll
slow
fast
+/-
esc
set tempo
stop
#1 MARko

PS AKI STA CHAVOZ...
A LA OTRA TRANSCRIPCION SOLOLE FALTA EL REKINTO PERO
LOS TONOS ESTAN BIEN...

(8P

A)
e|-12-10-9-10-9---9------------------5----------------------|
B|--------------12-12-10-12-10-9-10--5----------------------|
G|-----------------------------------6----------------------|
D|-----------------------------------7--2-0-0---------------|
A|-----------------------------------7-----4-4-2-4-2-0-2-0--|
E|-----------------------------------5------------------0---|

B)
e|-0-4-55-4-5-0-4-55-4-5--0-4-5-4-2-4-2-0-2-0-0-|
B|-------------------------------------------3--|
G|----------------------------------------------|
D|----------------------------------------------|
A|----------------------------------------------|
E|----------------------------------------------|

e|---00-0--00-0---0-2-0-------|
B|--0--3--0--3---0-----3-2-0--|
G|-1-----1------1-----------2-|
D|----------------------------|
A|----------------------------|
E|----------------------------|

SIGUE OTRA VEZ DESDE EL INCISO "B"
DESPUES DE PASAR DIOS VECES POR EL INCISO "B" SIGUE UNA PARTE
DONDE SE PASEAPOR LA ESCALA Y DESPUES SIGUE LA LETRA

A             E7                         A
Eta Noche Me Voy Al Baile A Levantar Una Polvadera...
A             E7                         A
EStas Noche Me Voy al baile A Levantar Una Polvadera...
D                 A                 E7           A
Porque Van A Estar Los Cuates Tocando La Canelera...
D                 A                 E7           A
Porque Van A Estar Los Cuates Tocando La Canelera...

A                E7                   A
Le Tocaron Un Beso Al Viento Me Puse Romanticon.....
A                E7                   A
Le Tocaron Un Beso Al Viento Me Puse Romanticon......
D             A          E7           A
Y Con Este Zapateado Se Me Alegra El Corazon....
D             A          E7           A
Y Con Este Zapateado Se Me Alegra El Corazon.....

A             E7                                  A
Cuando Tenia Ganas De Verte Fui A Tu Casa Y Tu No Estabas...
A             E7                                  A
Cuando Tenia Ganas De Verte Fui A Tu Casa Y Tu No Estabas...
A      D                A            E7           A
Me Salio Tu  Perro Hambriento Me Ladraba Y  Me Ladraba
A        D          A            E7            A
Me Agarro De Los Calzones Y Me Puso Una Rebolcada.....

                 E7                   A
Ya Con Esta Me Despido Ya Me Boy A Retirar
             E7                          A
De Toditos Mis AmigosQue Ahora Voy A Mencionar
  D          A             E7          A
De Sonora,Sinaloa, De Jalisco, Y Michoacan...
  D           A             E7         A
Nayarit Y Guanajuato Zacatecas Por Igual....
D            A                  E7              A
Disculpen Me Mis Amigos Que No Alcanze A Mencionar...

ESPERO Y KE LA SAKEN CHILORIA...

BYE

            
            
Suggest correction
Creating personal tab
Creating personal tab
You can edit any tab online and save it as your Personal.

You can edit, replace or remove any tab part or add personal notes – all changes will be seen only by you.

Personal tabs can be accessed anytime from any device, even offline.
Learn more »
Give kudos to tab author, rate the tab!
1 2 3 4 5
comments
print report bad tab
guest
Wanna post a correction for this tab? Suggest correction