Oops, an error
Loading. Please wait.

La Vida Mafiosa tab

130 views 3 this week
no commentswrite comment
1 2 3 4 5
3 more votes to show rating
add to favorites
×
Save as Personal and add changes to this tab that will be seen only by you. Learn more ›
×
You can save this tab as Personal to edit and correct it or add notes. All changes will be seen only by you. Learn more »
launch autoscroll
font size
0
reset
how to read this tab
guitar tuner
edit
Autoscroll
slow
fast
+/-
esc
set tempo
stop
Los Cuates De Sianloa-La vida mafiosa

E-7-7-7--5-4-5-5--5-5-5-4-5-4-4s7-7--|
B-9-9-9--7-5-7-7--7-7-7-5-7-5-5s9-9--|
G------------------------------------|
D------------------------------------|
A------------------------------------|
E------------------------------------|

E-7-7-5-4-4s-9-9--7-9--5---5-5-4-2-2s7-7-5-7-4-|
B-9-9-7-5-5s10-10-9-10-7---7-7-5-3-3s9-9-7-9-5-|
G----------------------------------------------|
D----------------------------------------------|
A----------------------------------------------|
E----------------------------------------------|

ESCALA PARA CAER AL TONO DE  ?LA?
E-5-4-3-2-0--------------------------------------------------|
B-----------3-2-0--------------------------------------------|
G-----------------2--2-0-0-----------------------------------|
D---------------------------4-4-2-2-0------------------------|
A-------------------------------------4-20-------------------|
E------------------------------------------------------------|

E--------------------|-------------------------------|
B-2------------------|-------------------------------|
G-2------------------|-------------------------------|
D-2-4-2--2-0---------|-------------------------------|
A------------4-2-0---|-------------------0-2-4-0-----|
E--------------------|-------------0-2-4-------------|
LA                 RE             LA7      LA
Sentado en una llelera, y escuchando un corridor
                         LA7                   LA
Le jale a un cuerno de chivo, Rodeado por mis amigos
                    LA7                         LA
Con los versos recordava ,Todo lo que en vida e sido.

LA                   RE         LA7          LA
Se me calento el terreno, Me buscaban por Mafioso
                   LA7                        LA
Me achaban varias muertes, Por la prensa publicaron
                LA7                      LA
Y como si fuera poco ,Asta rifles me achacaron

Requinto de la introduccion
LA, LA7, LA, LA7, LA, LA7, LA
LA                  RE        LA7                 LA
Me pierdo por temporadas, cuando no ay que dar la cara
                      LA7                          LA
Se  obscurece y no amanece, si se trata de alguna chamba
                       LA7                        LA
Yo no tengo quien me enpuje, solito me abiento al agua.

LA                   RE       LA7             LA
Me gusta escuchar consejos, pero no me manden nada
                    LA7                  LA
Cuando algo me sale mal, a mi nadie me regana
                   LA7                    LA
Me paso por donde quiera, con damas y camaradas.

Acordes
  LA  RE  LA7
E-5-|-5-|-5-|
B-5-|-7-|-5-|
G-6-|-7-|-7-|
D-7-|-7-|-6-|
A-7-|---|-7-|
E---|---|---|

Se puede terminar con el mismo requinto de la introduccion o solamente
una escala de segunda a primera o de  La7 a  La major comokieran yamarle...
espero k mi primer tab k subo les ayude y saludote ay pa mi
carnal el richard
y pa la raza de Hillo y Phoenix.
beheba5@ ay pa si se les ofrece algo...|

            
            
Suggest correction
Creating personal tab
Creating personal tab
You can edit any tab online and save it as your Personal.

You can edit, replace or remove any tab part or add personal notes – all changes will be seen only by you.

Personal tabs can be accessed anytime from any device, even offline.
Learn more »
Give kudos to tab author, rate the tab!
1 2 3 4 5
comments
print report bad tab
guest
Wanna post a correction for this tab? Suggest correction