Oops, an error
Loading. Please wait.

La Yaquesita tab

version 2
version 2

Whole song

112 views 3 this week
no commentswrite comment
1 2 3 4 5
3 more votes to show rating
add to favorites
×
Save as Personal and add changes to this tab that will be seen only by you. Learn more ›
×
You can save this tab as Personal to edit and correct it or add notes. All changes will be seen only by you. Learn more »
launch autoscroll
font size
0
reset
how to read this tab
guitar tuner
edit
Autoscroll
slow
fast
+/-
esc
set tempo
stop
Un saludo para los compas del Cerecyt
y al Erick

Requinto:
                G

   e |-2--3-3-2-3-2--3-3---------------------------|
   B |-3--5-5-3-5-3--5-5---------------------------|
   G |---------------------------------------------|
   D |---------------------------------------------|
   A |---------------------------------------------|
   E |---------------------------------------------|

            D7
   e |-----2-3-----2-2----------------------------|
   B |-0-1-3-5-0-1-3-3----------------------------|
   G |--------------------------------------------|
   D |--------------------------------------------|
   A |--------------------------------------------|
   E |--------------------------------------------|

                   G
   e |---2-2-2----2-2-2-----3-------3--------------|
   B |-1-3-3-3--1-3-3-3-1-0-5-1-3-1-0--------------|
   G |------------------------2-4-2-0--------------|
   D |---------------------------------------------|
   A |---------------------------------------------|
   E |---------------------------------------------|

         D7
   e |-----2-3-----2-2----------------------------|
   B |-0-1-3-5-0-1-3-3----------------------------|
   G |--------------------------------------------|
   D |--------------------------------------------|
   A |--------------------------------------------|
   E |--------------------------------------------|

                   G
   e |---2-2-2----2-2-2-----3-------3--------------|
   B |-1-3-3-3--1-3-3-3-1-0-5-1-3-1-0--------------|
   G |------------------------2-4-2-0--------------|
   D |---------------------------------------------|
   A |---------------------------------------------|
   E |---------------------------------------------|

          G           C
   e |------------0-0-0-0-0-----------------------|
   B |-3-1-3-1-0--1-0-1-0-1-1---------------------|
   G |-4-2-4-2-0------------2---------------------|
   D |--------------------------------------------|
   A |--------------------------------------------|
   E |--------------------------------------------|

         D7                 G
e |-2--5-5-3-3-2-2-----3--------3----|
B |-3--7-7-5-5-3-3-1-0-5--1-3-1-0----|
G |-----------------------2-4-2-0----|
D |----------------------------------|
A |----------------------------------|
E |----------------------------------|


G                                           D7
Yo tengo una Yaquesita que quise mucho en sonora
                                                   G
Que cuando ella baila cumbia y el que la ve se enamora
                                             D7
Yo tengo una Yaquesita que quise mucho en sonora
                                                   G
Que cuando ella baila cumbia y el que la ve se enamora

Coro
G               C
Ay mi Yaquesita, ay mi Yaquesita
     D7                                      G
Tú tienes tu cuerpo hermoso que pareces sirenita
G                C
Ay mi Yaquesita, ay mi Yaquesita
     D7                                               G
Tú tienes tu cuerpo hermoso que pareces sirenita

           G

   e |-2--3-3-2-3-2--3-3---------------------------|
   B |-3--5-5-3-5-3--5-5---------------------------|
   G |---------------------------------------------|
   D |---------------------------------------------|
   A |---------------------------------------------|
   E |---------------------------------------------|

            D7
   e |-----2-3-----2-2----------------------------|
   B |-0-1-3-5-0-1-3-3----------------------------|
   G |--------------------------------------------|
   D |--------------------------------------------|
   A |--------------------------------------------|
   E |--------------------------------------------|

                   G
   e |---2-2-2----2-2-2-----3-------3--------------|
   B |-1-3-3-3--1-3-3-3-1-0-5-1-3-1-0--------------|
   G |------------------------2-4-2-0--------------|
   D |---------------------------------------------|
   A |---------------------------------------------|
   E |---------------------------------------------|

         D7
   e |-----2-3-----2-2----------------------------|
   B |-0-1-3-5-0-1-3-3----------------------------|
   G |--------------------------------------------|
   D |--------------------------------------------|
   A |--------------------------------------------|
   E |--------------------------------------------|

                   G
   e |---2-2-2----2-2-2-----3-------3--------------|
   B |-1-3-3-3--1-3-3-3-1-0-5-1-3-1-0--------------|
   G |------------------------2-4-2-0--------------|
   D |---------------------------------------------|
   A |---------------------------------------------|
   E |---------------------------------------------|

          G           C
   e |------------0-0-0-0-0-----------------------|
   B |-3-1-3-1-0--1-0-1-0-1-1---------------------|
   G |-4-2-4-2-0------------2---------------------|
   D |--------------------------------------------|
   A |--------------------------------------------|
   E |--------------------------------------------|

         D7                 G
e |-2--5-5-3-3-2-2-----3--------3----|
B |-3--7-7-5-5-3-3-1-0-5--1-3-1-0----|
G |-----------------------2-4-2-0----|
D |----------------------------------|
A |----------------------------------|
E |----------------------------------|

G                                                 D7
Y todos los yaquis dicen pues que te traes hombre yori
                                              G
Y yo les contesto a todos que si me caso con yoli
                                                  D7
Y todos los yaquis dicen pues que te traes hombre yori
                                              G
Y yo les contesto a todos que si me caso con yoli

Coro
G                C
Ay mi Yaquesita, ay mi Yaquesita
    D7                                       G
Tú tienes tu cuerpo hermoso que pareces sirenita
G                C
Ay mi Yaquesita ay mi Yaquesita
     D7                                      G
Tú tienes tu cuerpo hermoso que pareces sirenita

           G

   e |-2--3-3-2-3-2--3-3---------------------------|
   B |-3--5-5-3-5-3--5-5---------------------------|
   G |---------------------------------------------|
   D |---------------------------------------------|
   A |---------------------------------------------|
   E |---------------------------------------------|

            D7
   e |-----2-3-----2-2----------------------------|
   B |-0-1-3-5-0-1-3-3----------------------------|
   G |--------------------------------------------|
   D |--------------------------------------------|
   A |--------------------------------------------|
   E |--------------------------------------------|

                   G
   e |---2-2-2----2-2-2-----3-------3--------------|
   B |-1-3-3-3--1-3-3-3-1-0-5-1-3-1-0--------------|
   G |------------------------2-4-2-0--------------|
   D |---------------------------------------------|
   A |---------------------------------------------|
   E |---------------------------------------------|

         D7
   e |-----2-3-----2-2----------------------------|
   B |-0-1-3-5-0-1-3-3----------------------------|
   G |--------------------------------------------|
   D |--------------------------------------------|
   A |--------------------------------------------|
   E |--------------------------------------------|

                   G
   e |---2-2-2----2-2-2-----3-------3--------------|
   B |-1-3-3-3--1-3-3-3-1-0-5-1-3-1-0--------------|
   G |------------------------2-4-2-0--------------|
   D |---------------------------------------------|
   A |---------------------------------------------|
   E |---------------------------------------------|

          G           C
   e |------------0-0-0-0-0-----------------------|
   B |-3-1-3-1-0--1-0-1-0-1-1---------------------|
   G |-4-2-4-2-0------------2---------------------|
   D |--------------------------------------------|
   A |--------------------------------------------|
   E |--------------------------------------------|

         D7                 G
e |-2--5-5-3-3-2-2-----3--------3----|
B |-3--7-7-5-5-3-3-1-0-5--1-3-1-0----|
G |-----------------------2-4-2-0----|
D |----------------------------------|
A |----------------------------------|
E |----------------------------------|


Bueno, hay quedo la rola, pero la arma un poco más El Erick
hay esta su correo por cualquier aclaración erick_sexy22...
Suggest correction
Creating personal tab
Creating personal tab
You can edit any tab online and save it as your Personal.

You can edit, replace or remove any tab part or add personal notes – all changes will be seen only by you.

Personal tabs can be accessed anytime from any device, even offline.
Learn more »
Give kudos to tab author, rate the tab!
1 2 3 4 5
comments
print report bad tab
guest
Wanna post a correction for this tab? Suggest correction