Oops, an error
Loading. Please wait.

Destino De Paria bass

version 1
version 1

Whole song

68 views 1 this week
no commentswrite comment
1 2 3 4 5
3 more votes to show rating
add to favorites
×
Save as Personal and add changes to this tab that will be seen only by you. Learn more ›
×
You can save this tab as Personal to edit and correct it or add notes. All changes will be seen only by you. Learn more »
launch autoscroll
font size
0
reset
guitar tuner
edit
Autoscroll
slow
fast
+/-
esc
set tempo
stop
Introducción de vientos:

G |-------------------------------------------------------|
D |----5-2-2------5-2-2------0-2-0------0-2-0-------------|
A |--0---------0------------------------------------------|
E |------------------------3---------3--------------------|


G |-------------------------------------------------------|
D |----5-2-2------5-2-2------0-2-0------0-2-0-------------|
A |--0---------0------------------------------------------|
E |------------------------3---------3--------------------|


G |----------------------------2-0------------------------|
D |--2---0-1-2-0------------2-----2-0--0-------0-0--------|
A |-----2---------3-2-0-2-3---------------0-2-3-----2-0---|
E |-------------------------------------------------------|


G |-------------------------------------------------------|
D |--5-2--------------------------------------------------|
A |------5-2----------------------------------------------|
E |-----------3-------------------------------------------|


Va la tarde sobre el barrio con calor el corazón va lento
G |-------------------------------------------------------|
D |----5-2-2------5-2-2------0-2-0------0-2-0-------------|
A |--0---------0------------------------------------------|
E |------------------------3---------3--------------------|


Y el destino que se empeña en ponerme siempre frente a vos
G |-------------------------------------------------------|
D |----5-2-2------5-2-2------0-2-0------0-2-0-------------|
A |--0---------0------------------------------------------|
E |------------------------3---------3--------------------|


Te amo tanto que no veo lo que soy lo que tengo delante
G |-------------------------------------------------------|
D |----5-2-2------5-2-2------0-2-0------0-2-0-------------|
A |--0---------0------------------------------------------|
E |------------------------3---------3--------------------|


Tantas tardes esperando a que salieras tal vez sea hoy
G |-------------------------------------------------------|
D |----5-2-2------5-2-2------0-2-0------0-2-0-------------|
A |--0---------0------------------------------------------|
E |------------------------3---------3--------------------|


Aaahhh, sería un milagro si. Aaahhh, te enamoras de mí
G |-------------------------------------------------------|
D |----5-2-2------5-2-2------0-2-0------0-2-0-------------|
A |--0---------0------------------------------------------|
E |------------------------3---------3--------------------|


Aaahhh, Yo solo vivo para vos. Aaahhh, tan solo para vos
G |-------------------------------------------------------|
D |----5-2-2------5-2-2------0-2-0------0-2-0-------------|
A |--0---------0------------------------------------------|
E |------------------------3---------3--------------------|


Solo en la vida, me siento sin tu cariño
G |---------------------------------2-0-------------------|
D |--2------0-1-2-2-2-0-----------2----2-1-0-0------------|
A |-----2-2-------------2-0-2-2-3--------------0-2-3------|
E |-------------------------------------------------------|


Solo como un paria sin tu amor
G |-------------------------------------------------------|
D |-0-0-------0-0-0------5-5-2----------------------------|
A |-----0-2-3-------2-0--------5-2------------------------|
E |--------------------------------3----------------------|


Si no hay manera de que pueda enamorarte
G |---------------------------------2-0-------------------|
D |--2------0-1-2-2-2-0-----------2----2-1-0-0------------|
A |-----2-2-------------2-0-2-2-3--------------0-2-3------|
E |-------------------------------------------------------|


Irme al otro lado es o mejor
G |-------------------------------------------------------|
D |-0-0-------0-0-0-2-0----5-5-5-2-2-2--------------------|
A |-----0-2-3--------------------------5-5-5-2-2-2--------|
E |-------------------------------------------------3-----|

Y así la canción completa. El coro puede tener variaciones,
pero son bastante mínimas. Saludos a todos.
En especial a la Caro. ¡Te la dedico!

            
            
Suggest correction
Creating personal tab
Creating personal tab
You can edit any tab online and save it as your Personal.

You can edit, replace or remove any tab part or add personal notes – all changes will be seen only by you.

Personal tabs can be accessed anytime from any device, even offline.
Learn more »
Give kudos to tab author, rate the tab!
1 2 3 4 5
comments
print report bad tab
guest
Wanna post a correction for this tab? Suggest correction