Oops, an error
Loading. Please wait.

El Toro Y La Luna tab

version 2
version 2

Whole song

74 views 3 this week
no commentswrite comment
1 2 3 4 5
3 more votes to show rating
add to favorites
×
Save as Personal and add changes to this tab that will be seen only by you. Learn more ›
×
You can save this tab as Personal to edit and correct it or add notes. All changes will be seen only by you. Learn more »
launch autoscroll
font size
0
reset
how to read this tab
guitar tuner
edit
Autoscroll
slow
fast
+/-
esc
set tempo
stop
Gipsy Kings
*ATENCIÓN: La tonalidad de la versión de estudio está medio tono más bajo
que la afinación estándar de una guitarra, tengan en cuenta de que si la
tocan a la par con la versión de estudio, sonará rara :)


e----------2-----------------------------5--7--5---------|
B---------0-----------------------------5--------5-------|
G--------0------ ----------------------5------------5----|
D-------0----------------------------7----------------7--|
A----2---------------------------------------------------|
E--0-------------------------------5---------------------|

              La luna se estaba peinado

e--------3---2-------------------------0--------|
B-------4----------------------------3--3-------|
G------4------ ---------------------0----0------|
D----------------------------------0------0-----|
A-----2---------------------------2--------2----|
E-------------------------------0-----------0---|

           En los espejos del río


e -------------------------5-------5------5-------5-----|
B------------------------5-------5------5-------5-------|
G--------------- -------5-------5------5-------5--------|
D---------------------7-------6------5------------------|
A--------------------------------------------9------7---|
E-------------------------------------------------------|

   Y un toro la está mirando


e ---8------7------------------------------7---10--12---|
B ---8------7----------------------------8--------------|
G ---9------8----- --------------------9----------------|
D ---8------7-----------------------9-------------------|
A ---10-----9-------------------------------------------|
E ---8------7-------------------------------------------|

              Entre la Jara escondio

                         Am     D
CUANDO LLEGA LA ALEGRE MAÑANA

                        G
Y LA LUNA SE ESCAPA DEL RÍO

   Em                   E
EL TORITO SE METE EN EL AGUA

       Am                    B7
EMBISTIENDO AL VER QUE SE HA IDO

                           E
Y ESE TORO ENAMORADO DE LA LUNA

                                  B7
QUE ABANDONA POR LAS NOCHES LA MANADA


Y ES PINTADO DE AMAPOLA Y ACEITUNA

                           E     B7 B7
Y LE PUSO CAMPANERO EL MAYORAL

       E
LOS ROMEROS DE LOS MONTES LE BESAN LA FRENTE

       E7                           A
LAS ESTRELLAS Y LUCEROS LO BAÑAN DE PLATA

      Am                                 E
Y EL TORITO QUE ES BRAVIO Y DE CASTA VALIENTE

              B7                E
ABANICOS DE COLORES PARECEN SUS PATAS

Se repite desde "Y ESE TORO ENAMORADO DE LA LUNA..."

Em                   Am
   LA LUNA SALE ESTA NOCHE

B7                   Em
   CON NEGRA BATA DE COLA

                    Am
Y UN TORO LA ESTÁ MIRANDO

B7                    Em
   ENTRE LA JARA Y LA SOMBRA

        E                 Am   D
Y EN LA CARA DEL AGUA DEL RÍO

                       G
DONDE DUERME LA LUNA LUNERA

      Em               E   Am
EL TORITO DE CASTA BRAVIO

                        B7
LA VIGILA COMO UN CENTINELA

Se repite desde "Y ESE TORO ENAMORADO DE LA LUNA..."
y al final termina en B7 y E

            
            
Suggest correction
Creating personal tab
Creating personal tab
You can edit any tab online and save it as your Personal.

You can edit, replace or remove any tab part or add personal notes – all changes will be seen only by you.

Personal tabs can be accessed anytime from any device, even offline.
Learn more »
Give kudos to tab author, rate the tab!
1 2 3 4 5
comments
print report bad tab
guest
Wanna post a correction for this tab? Suggest correction