Oops, an error
Loading. Please wait.

Howen tab

version 1
version 1

Whole song

79 views 6 this week
no commentswrite comment
1 2 3 4 5
3 more votes to show rating
add to favorites
×
Save as Personal and add changes to this tab that will be seen only by you. Learn more ›
×
You can save this tab as Personal to edit and correct it or add notes. All changes will be seen only by you. Learn more »
launch autoscroll
font size
0
reset
how to read this tab
guitar tuner
edit
Autoscroll
slow
fast
+/-
esc
set tempo
stop
 Ahi les va una de las nuevas canciones de los Fabulosos Cadillacs, estoy 
 muy seguro de que el tab esta correcto pero si alguien encuentra algun 
 error hagamelo saber.
 O.K. ahi les va.....
 
 
         /=slide
         p=pull
         h=hammer 
 
 
  Intro: Gtr.1(elect./clean)
    Bm                G                   Bm
 e*---------------------------------3--------------------------------*
 B*---------3-----------------------3--------------3-----3/5----*
 G*-------4------------------4-------------------4----------------*
 D*-----4------------------5-------------------4-------------------*
 A*---2------------------5-------------------2---------------------*
 E*-2------------------3-------------------2-----------------------*
 
      Verso1
 e*-----------------------------------------------*
 B*-------------------------------------------------------------------------*
 G*------------------------------------------------------------------------*
 D*--0-0-0--3--5/7--5---0-3-2-0-----0-3-5/7-5---0----10---88h10p8----7----*
 A*-----------------------------------------------------------------------*
 E*-----------------------------------------------------------------------*
 
 e*-----------------------------------------------------------------------*
 B*-----------------------------------------------------------------------*
 G*-----------------------------------------------------------------------*
 D*--0-0--3--5/7-5----0-3-2h3p2-0-------0-3--5/7-5---0--3--5--7-----------*
 A*------------------------------------------------0---------------------*
 E*-----------------------------------------------------------------------*
                                                             esta parte 
 se repite:(Fig.1)
 e*-----------------------------------------------------------------------*
 B*-----------------------------------------------------------------------*
 G*-----------------------------------------------------------------------*
 D*--8-----5--------7-7-7-------------------------------------------------*
 A*---------------------------7-7-7----3-3-3-----0-0-0-----------5/7----5-*
 E*------------------------------------------------------------------3----*
 
 Luego se repite otra vez todo el Verso1.
 De inmediato se toca esto:
 
 Verso2
 e*-----------------------------------------------------------------------*
 B*-----------------------------------------------------------------------*
 G*-----------------------------------------------------------------------*
 D*-----------------------7-----------------------------------------------*
 A*----------------5/9----7------5---7p5-7---5---7p5----------------------*
 E*---7--7--7---------------------------------------------------7--5------*
 
 e*-----------------------------------------------------------------------*
 B*-----------------------------------------------------------------------*
 G*------------------------------------------------------------7----------*
 D*-----------------------7--------------------------------7----9---------*
 A*----------------5/9----7-----5---7p57----7--9--------------------------*
 E*---7--7--7-------------------------------------------------------------*
 
 e*-----------------------------------------------------------------------*
 B*-----------------------------------------------------------------------*
 G*-----------------------------------------------------------------------*
 D*----------------------7------------------------------------------------*
 A*---------------5/9----7------5----7----5-5-----------------------------*
 E*---7--7--7----------------------------------------7--5-----------------*
 
 e*-----------------------------------------------------------------------*
 B*----------------------------------8------------------------------------*
 G*-------------------------------9---------------------------------------*
 D*----------------------7----9-------------------------------------------*
 A*---------------5/9-----7-----------------------------------------------*
 E*---7--7--7-------------------------------------------------------------*
 
 Se repite el verso1 con coro:
 
 Que vas a hacer cuando ya este
 lejos del puerto y la ciudad
 yo ya no se si vengo o voy
 sigo pensando en escapar
 w/Fig.1
 Cuando te alejas de todo puedo mirarte asi
 Cuando te alejas de todo puedo reirme asi
 
 [Fig.2]    repite 3 veces                    y por ultimo:
         r e i r m e    a s i
 e*-------------------------------------*           
 e*-----------------------*
 B*------------------------------------*            
 B*-----------------------*
 G*------------------------------------*           
 G*-----------------------*
 D*----3--5--7------0---3---------*
 D*---0---3---2---0---*
 A*-------------------------------------*          
 A*------------------------*
 E*-------------------------------------*          
 E*------------------------*

            
            
Suggest correction
Creating personal tab
Creating personal tab
You can edit any tab online and save it as your Personal.

You can edit, replace or remove any tab part or add personal notes – all changes will be seen only by you.

Personal tabs can be accessed anytime from any device, even offline.
Learn more »
Give kudos to tab author, rate the tab!
1 2 3 4 5
comments
print report bad tab
guest
Wanna post a correction for this tab? Suggest correction