Oops, an error
Loading. Please wait.

La Parte De Adelante tab

version 3
version 3

Whole song

31 views 1 this week
no commentswrite comment
1 2 3 4 5
3 more votes to show rating
add to favorites
×
Save as Personal and add changes to this tab that will be seen only by you. Learn more ›
×
You can save this tab as Personal to edit and correct it or add notes. All changes will be seen only by you. Learn more »
launch autoscroll
font size
0
reset
how to read this tab
guitar tuner
edit
Autoscroll
slow
fast
+/-
esc
set tempo
stop
Bno aki esta el punteo del comienzo y el de los vientos para
que la toke la guitarra

 Cm-F-Dm-F-Gm
 Cm-F-Dm-F-Gm

Esto se toca mientras el punteo y luego los vientos:
Cm-F-Dm-Gm x4

 (guitarra)
e|-----------------------------|  |----------------------|
B|-----------------------------|  |----------------------|
G|-----------------------------|  |----------------------|
D|-4/5--4/5-3------------3/5---|  |-4/5--8-5-3---5-------|
A|-------------5/6-5--3-5------|  |-------------5--------|
E|-----------------------------|  |----------------------|

(vientos)
e|----------------------------------------------|
B|----------------------------------------------|
G|-7/8--7-8-7------------------7--8-7-----------|
D|------------10-8-7----7-8-10-------10-8-7-----|
A|------------------8-10--------------------10--|
E|----------------------------------------------|

e|--------------------------------------------|
B|--------------------------------------------|
G|--------------------------------------------|
D|------7-10--12-10-8---------------------12v-|
A|-8-10---------------12-10-8-------9/10------|
E|----------------------------10-11-----------|

 -Verso: Cm-F-Dm-Gm

 -Vientos

 -Verso: Cm-F-Dm-Gm

 -Vientos

 -Verso:Cm-F-Dm-Gm

 -Vientos

 -Cambia de tono: G-G-G-G-F-G-G-G-G-F-G

Espero que les halla gustado la transcripcion. Viva el maestro
Calamaro y Los Fabulosos Cadillacs!!

Cualkier duda escribanme  ponchohuertas@

            
            
Suggest correction
Creating personal tab
Creating personal tab
You can edit any tab online and save it as your Personal.

You can edit, replace or remove any tab part or add personal notes – all changes will be seen only by you.

Personal tabs can be accessed anytime from any device, even offline.
Learn more »
Give kudos to tab author, rate the tab!
1 2 3 4 5
comments
print report bad tab
guest
Wanna post a correction for this tab? Suggest correction