Oops, an error
Loading. Please wait.

Silencio Hospital bass

version 2
version 2

Whole song

38 views 1 this week
no commentswrite comment
1 2 3 4 5
3 more votes to show rating
add to favorites
×
Save as Personal and add changes to this tab that will be seen only by you. Learn more ›
×
You can save this tab as Personal to edit and correct it or add notes. All changes will be seen only by you. Learn more »
launch autoscroll
font size
0
reset
guitar tuner
edit
Autoscroll
slow
fast
+/-
esc
set tempo
stop
Bueno, como no se escribir en tablatura, les voy a poner tal como la toco
pero solo está en que la escuchen para poder entender lo que quiero explicar.

Explicacion de mis simbolos.
Las notas sostenidas las puse asi: 0~~
En este simbolo [ 3/\ ] quiero darme a entender que se toca con slide adelante
no recuerdo bien cuantos trastes y se devuelve

El intro se sostiene A, E al aire y D al aire

Intro                                     x2
----------------------------||-------------------------|----------------------|
----------------------------||-------------------------|-------3-3----3-3---3-|
--0~~----5~~--7-7---7---5-7-||--------3--/7-7---7-7----|-5-3-5-----5------5---|
----0~~---------------------||-5-3-5----------8------8-|----------------------|

                         Esta parte se toca rápido.
-----------7------------|--10---10---10---10---12---||
-------5-9---9-9--------|---------------------------||
-7-5-7-----------7------|-8----8----8----8-----10---||
------------------------|---------------------------||  tocarlo 3 veces....

                          tocar 4 veces       tocar 4 veces
  sostener C y G          voy caminando..     estoy durmiendo..
-------------------------|-------------------|-------------------|
-------------------------|-------------------|---------5---------|
--3~~--------------------|-------------------|------3----3-------|
------0-1-0---3~~--3/\---|------0--3-0-------|-------------------|

tocar 4 veces     tocar 4 veces
estoy arriba..    no voy a despertar..
-----------------|-----------------|
-------7---------|-----------------|
----5----5-------|--------7--------|
-----------------|-----5-----5-----|


tocar 4 veces   tocar 4 veces       tocar 4 veces     tocar 4 veces
vas caminando.. estas durmiendo..   estas arriba..    no voy a despertar..
---------------|-------------------|-----------------|-----------------|
---------------|---------5---------|-------7---------|-----------------|
---------------|------3----3-------|----5----5-------|--------7--------|
------0--3-0---|-------------------|-----------------|-----5-----5-----|


jamas...
|--------------------|
|--------------------|
|--------------------|
|------------1~~-3---|


           1,2,3,4...
--------------------------------------|
--------------------------------------|
--------3--/7-7-7-7-7-7-7-7-7-7-7-7---|
-5-3-5--------------------------------|

En esta parte va el solo de saxofon

se repite 2 veces
||--------------------------|------------------------|-----------7----------|
||--------------------------|-------3--/7------7-----|-------5-9---9-9------|
||--------3--/7-7---7-7-----|-5-3-5-------8------8---|-7-5-7-----------7----|
||-5-3-5----------8------8--|------------------------|----------------------|

                                                      final.
--10----10----10----10----12-----11------9------7---||----------------|
----------------------------------------------------||----------------|
-8-----8-----8-----8----10-----9------7------5------||----------------|
----------------------------------------------------||---5-5-5--3-5---|

Espero que les sirva y si hay correciones pues acomodenle a su gusto,
ya que la escribi de memoria en mi trabajo y aqui no puedo tener mi bajo.
Suggest correction
Creating personal tab
Creating personal tab
You can edit any tab online and save it as your Personal.

You can edit, replace or remove any tab part or add personal notes – all changes will be seen only by you.

Personal tabs can be accessed anytime from any device, even offline.
Learn more »
Give kudos to tab author, rate the tab!
1 2 3 4 5
comments
print report bad tab
guest
Wanna post a correction for this tab? Suggest correction