Oops, an error
Loading. Please wait.

Soledad bass

version 2
version 2

Whole song

28 views 1 this week
no commentswrite comment
1 2 3 4 5
3 more votes to show rating
add to favorites
×
Save as Personal and add changes to this tab that will be seen only by you. Learn more ›
×
You can save this tab as Personal to edit and correct it or add notes. All changes will be seen only by you. Learn more »
launch autoscroll
font size
0
reset
guitar tuner
edit
Autoscroll
slow
fast
+/-
esc
set tempo
stop
G|----------------------------|
D|----------------------------|
A|-------333-?555--333--------| x2   Intro
E|--333-----------------------|

((en esta estrofa va el mismo ritmo del intro))
G|----------------------------|
D|----------------------------|
A|-------333-?555--333--------| x4
E|--333-----------------------|
Soledad vas a marcharte
en un día frío de Buenos Aires.........

......ahora me muero de ganas
de abrazarte.....
seg 0:44 en cuanto entran las trompetas
G|-------|-----------------------------------|
D|-------|-----------------------------------|
A|----3--|--5555----5555----5555-----555555-5|
E|--3----|------3333----3333----3333---------|
Soledad, Soledad, Soledad
          X3
G|----------------------|-------|
D|----------------------|-------|
A|-5-55-----33?---------|-------|
E|-------1-1--3-33-3-33-|--7s3--|

G|----------------------------|
D|----------------------------|
A|-------333-?555--333--------| x2
E|--333-----------------------|

Te lo ruego olvidemos esta noche
que tus ojos
no se cubran más de lágrimas
te hice mal - cuanto lo siento
G|----------------------------|
D|----------------------------|
A|-------333-?555--333--------| x 3
E|--333-----------------------|
perdóname amor no quise lastimarte.....
G|-------|-----------------------------------|
D|-------|-----------------------------------|
A|----3--|--5555----5555----5555-----555555-5|
E|--3----|------3333----3333----3333---------|
Soledad, Soledad, Soledad
          X3
G|----------------------|
D|----------------------|
A|-5-55-----33?---------|
E|-------1-1--3-33-3-33-|
Final
G|----------------------|
D|----------------------|
A|-5-55-----33?---------|
E|-------1-1--3-- ~ ~ ~-|

            
            
Suggest correction
Creating personal tab
Creating personal tab
You can edit any tab online and save it as your Personal.

You can edit, replace or remove any tab part or add personal notes – all changes will be seen only by you.

Personal tabs can be accessed anytime from any device, even offline.
Learn more »
Give kudos to tab author, rate the tab!
1 2 3 4 5
comments
print report bad tab
guest
Wanna post a correction for this tab? Suggest correction