Oops, an error
Loading. Please wait.

Venganza tab

version 1
version 1

Whole song

41 views 1 this week
no commentswrite comment
1 2 3 4 5
3 more votes to show rating
add to favorites
×
Save as Personal and add changes to this tab that will be seen only by you. Learn more ›
×
You can save this tab as Personal to edit and correct it or add notes. All changes will be seen only by you. Learn more »
launch autoscroll
font size
0
reset
how to read this tab
guitar tuner
edit
Autoscroll
slow
fast
+/-
esc
set tempo
stop
Intro
-----
E|-0-1/3-3v--3-3-3/5-5v--5-5-5/7-7v-|-8-7-5-7-8-7-5-7-5v-|
B|----------------------------------|--------------------|
G|----------------------------------|--------------------|
D|----------------------------------|--------------------|
A|----------------------------------|--------------------|
E|----------------------------------|--------------------|

E|-7-8-10-8-7-8-10-7-8-7---|-5-6--6/8-8--8-8/5--5-7-5--3-|-8-7-8v-|
B|-----------------------8-|---------------------------0-|--------|
G|-------------------------|-----------------------------|--------|
D|-------------------------|-----------------------------|--------|
A|-------------------------|-----------------------------|--------|
E|-------------------------|-----------------------------|--------|

E|-7-8-10-8-7-8-8/10-8-8p7---|
B|-------------------------8-|
G|---------------------------|
D|---------------------------|
A|---------------------------|
E|---------------------------|

Riff 1
------
E|-8-7-8-|
B|-------|
G|-------|
D|-------|
A|-------|
E|-------|

Riff 2
------
E|-7-8-10-8-7-8-10-7-8-7---|---5-7-8-5-|
B|-----------------------8-|-8---------|
G|-------------------------|-----------|
D|-------------------------|-----------|
A|-------------------------|-----------|
E|-------------------------|-----------|

Riff 3
------
E|-7-8-10-8-7-8-10-7-8-7---|-7-8-10-8v-|
B|-----------------------8-|-----------|
G|-------------------------|-----------|
D|-------------------------|-----------|
A|-------------------------|-----------|
E|-------------------------|-----------|

Riff 4
------
E|-7-8-10-8-7-8-8/10-8-8p7---|-5-7-8---|
B|-------------------------8-|-------8-|
G|---------------------------|---------|
D|---------------------------|---------|
A|---------------------------|---------|
E|---------------------------|---------|

Riff 5
------
E|-7-8-10-8-7-8-10-7-8-7---|-8-7-8-|
B|-----------------------8-|-------|
G|-------------------------|-------|
D|-------------------------|-------|
A|-------------------------|-------|
E|-------------------------|-------|

C        Bm           G
No basta solo con una vida
      Am                      Bm
Para odiarte como yo te pude amar
    C        Bm            G       Am   G
Los ángeles anuncian la venganza a ha a ha aa
 C                Bm            G   (Riff 1)   Am (Riff 2)  G
Afuera el viento aúlla y yo tan solo         a ha         a ha aa
  C              Bm         G     (Riff 1)
Y brotan en mi deseos de perderte
      Am (Riff 3)      G
En el mar        en el mar

   C     D D#
Venganza
              Bm
La triste melodía
   Am             C   
Asesina de un corazón
                 Bm        G
Perdido en algún bar  uoh uouh
   C     D D#
Venganza
                  Bm            Am
Te fuiste como el sol en un día gris
       D
Y e la soledad
                 Bm    G
Nos vamos a encontrar

Solo
----
E|-0-1/3-3v--3-3-3/5-5v--5-5-5/7-7v-|-8-7-5-7-8-7-5-7-5v-|
B|----------------------------------|--------------------|
G|----------------------------------|--------------------|
D|----------------------------------|--------------------|
A|----------------------------------|--------------------|
E|----------------------------------|--------------------|

E|-7-8-10-8-7-8-10-7-8-7---|-7/12-12-12-12------|------7-8-10--10/12---|
B|-----------------------8-|---------------12-8-|-8-10---------------7-|
G|-------------------------|--------------------|----------------------|
D|-------------------------|--------------------|----------------------|
A|-------------------------|--------------------|----------------------|
E|-------------------------|--------------------|----------------------|

E|-8--7--7/8v--8--7--7/8v-|-7-8-10-8-7-8-10-7-8-7---|
B|------------------------|-----------------------8-|
G|------------------------|-------------------------|
D|------------------------|-------------------------|
A|------------------------|-------------------------|
E|------------------------|-------------------------|

E|-7/10--8-7-|-7-10-7-10-7-10-7-|
B|-----------|------------------|
G|-----------|------------------|
D|-----------|------------------|
A|-----------|------------------|
E|-----------|------------------|

C        Bm           G   (Riff 1)
No basta solo con una vida
      Am                (Riff 4) Bm
Para odiarte como yo te pude    amar
    C        Bm            G    (Riff1)   Am (Riff 5) G
Los ángeles anuncian la venganza        a ha        a ha aa
  C              Bm         G     (Riff 1)
Y brotan en mi deseos de perderte
      Am (Riff 3)      G
En el mar        en el mar

   C     D D#
Venganza
              Bm
La triste melodía
   Am             C   
Asesina de un corazón
                 Bm        G
Perdido en algún bar  uoh uouh
   C     D D#
Venganza
                  Bm            Am
Te fuiste como el sol en un día gris
       D
Y e la soledad
                 Bm    G
Nos vamos a encontrar

Fin:
---
E|-0-1/3-3v--3-3-3/5-5v--7/12--7-7-|-8-7-8-|
B|---------------------------------|-------|
G|---------------------------------|-------|
D|---------------------------------|-------|
A|---------------------------------|-------|
E|---------------------------------|-------|
                                     
E|-7-8-10-8-7-8-10-7-8-7---|-7-8-7-|-3-|
B|-----------------------8-|-------|-0-|
G|-------------------------|-------|-0-|
D|-------------------------|-------|-0-|
A|-------------------------|-------|-2-|
E|-------------------------|-------|-3-|

Especificaciones:
----------------
/: Slide - Deslizar
v: vibrato
p: pull off - Ligar

            
            
Suggest correction
Creating personal tab
Creating personal tab
You can edit any tab online and save it as your Personal.

You can edit, replace or remove any tab part or add personal notes – all changes will be seen only by you.

Personal tabs can be accessed anytime from any device, even offline.
Learn more »
Give kudos to tab author, rate the tab!
1 2 3 4 5
comments
print report bad tab
guest
Wanna post a correction for this tab? Suggest correction