Oops, an error
Loading. Please wait.

No Seas Timida chords

version 2
version 2

Whole song

22 views 1 this week
no commentswrite comment
1 2 3 4 5
3 more votes to show rating
add to favorites
×
Save as Personal and add changes to this tab that will be seen only by you. Learn more ›
×
You can save this tab as Personal to edit and correct it or add notes. All changes will be seen only by you. Learn more »
launch autoscroll
font size
0
reset
transpose
0
reset
display chords
guitar tuner
edit
Autoscroll
slow
fast
+/-
esc
set tempo
stop
Strumming
There is no strumming pattern for this song yet. and get +5 IQ
E  C#m  B  A


E                        C#m
No me busques por hoy intentalo entender,
E                      C#m
contigo el consuelo sustituye el volver
E                  C#m                          B
Algo me resulto distinto desde ayer lo siento.
        A                     E       C#m  B  A
Si supones mi adios supones bien.


E                    C#m
Me suena débil tu voz cuando estás aquí.
E                    C#m                           B
Soñé distante un recuerdo y me quede aquí lo siento,
          A                 E       C#m  B  A
no se lo que esperas de mi.


Rif...Se acerca la pista y bailas..
   E                   C#m              B                  A
E|--------------------|----------------|------------------|------------------|
B|--------------------|----------------|------------------|------------------|
G|----------6-9-6-----|----------------|------------------|------------------|
D|------6-9-------9-6-|-----4-5-6-5-4--|--------6-7-6-----|--------4-5-4-----|
A|--4/7---------------|--4-7--------- 7|----6-9-------9-6-|----4-7-------7-4-|
E|--------------------|----------------|--7---------------|--5---------------|


A
                    E
Se acerca la pista y bailas
                     C#m
se acerca la pista y bailas
                      B
se acerca la pista y bailas
     A                    E   C#m
pero no seas tímida.

      E         C#m            C             B
Pero no seas tímida, ya se lo que sientes por él


Solo
E  C#m  B  A    x3


Rif...Se acerca la pista y bailas..
   E                   C#m              B                  A
E|--------------------|----------------|------------------|------------------|
B|--------------------|----------------|------------------|------------------|
G|----------6-9-6-----|----------------|------------------|------------------|
D|------6-9-------9-6-|-----4-5-6-5-4--|--------6-7-6-----|--------4-5-4-----|
A|--4/7---------------|--4-7--------- 7|----6-9-------9-6-|----4-7-------7-4-|
E|--------------------|----------------|--7---------------|--5---------------|


A
                    E
Se acerca la pista y bailas
                     C#m
se acerca la pista y bailas
                      B
se acerca la pista y bailas
     A
pero no seas tímida.


E
EH!EH!EH!
C#m
EH!EH!EH!
B                  X2
EH!EH!EH!
A
EH!EH!EH!


Final

E  C#m B  ... B C C#m D D#m

E  C#m B A...B A  G#m F#m  E

            
            
Suggest correction
Creating personal tab
Creating personal tab
You can edit any tab online and save it as your Personal.

You can edit, replace or remove any tab part or add personal notes – all changes will be seen only by you.

Personal tabs can be accessed anytime from any device, even offline.
Learn more »
Give kudos to tab author, rate the tab!
1 2 3 4 5
comments
print report bad tab
guest
Wanna post a correction for this tab? Suggest correction