Oops, an error
Loading. Please wait.

La Chica De Mel chords

version 2
version 2

Whole song

30 views 1 this week
no commentswrite comment
1 2 3 4 5
3 more votes to show rating
add to favorites
×
Save as Personal and add changes to this tab that will be seen only by you. Learn more ›
×
You can save this tab as Personal to edit and correct it or add notes. All changes will be seen only by you. Learn more »
launch autoscroll
font size
0
reset
transpose
0
reset
display chords
guitar tuner
edit
Autoscroll
slow
fast
+/-
esc
set tempo
stop
Strumming
There is no strumming pattern for this song yet. and get +5 IQ
+ Servidor FTP de la Universidad de Leon        +
+   +
+++++++++++++++++++++++++++++++++++++++++++++++++

Aqu¡ va el punteo inicial y que se repite
tambi,n en la parte final:


                 E                        C#m
E---------------------------------------------------------------
B---------------------------------------------------------------
G---------------------------------------------------------------
D---------------------------------------------------------------
A------2-4-2---2----------------2-4-2---2-4-4-4-4-4------2-4-2--
E--0-4-------4---0-0-0-0-0--0-4-------4--------------0-4--------


       A                     B
E---------------------------------------------------------------
B---------------------------------------------------------------
G---------------------------------------------------------------
D--------------2------------------------------------------------
A----2-0-0-0-4---4-0-0-0-0-0-2-2-2-2----------------------------
E--4------------------------------------------------------------


E
Siempre pens, que te podr¡a encontrar
C#m
sirviendo copas en la barra de un bar
        A                          B
en un anuncio de Lovable o en Play-Boy.

E
Buscando taxi en una acera del Bronx
C#m
o seduciendo a tu primer profesor
            A                       B
o de "enfermera para todo" de un doctor.

C#m                  A
Lo que jam s yo pude imaginar
C#m                     A
era encontrarte a lomos de ese animal
D                 A             B
sonriendo a los amantes del pop-art.


                       E
Ahora s, que tu eres color y papel
                     C#m
y s, que tu cuerpo naci¢ de un pincel
                    A                             B
y que los cr¡ticos acercan sus gafas al cuadro de Mel.
                       E
La gente aplaude sin cesar al autor
                     C#m
por su valor al combinar el color
                   A                           B
pero yo prefiero fijarme en la marca de tu ba¤ador.


De noche sue¤o con que puedo mirar
tus pies descalzos por el parque central
tu boca en Tiffany's comiendo un croissant.
Y te imagino paseando en un Rolls
hacia el estudio del famoso pintor
tras una noche de champ n en Nueva York.
Y aunque Mel Ramos no te quiso pagar
y te marchaste andando de ese local
tu retrato cada d¡a vale m s.

Ahora s, que tu eres color y papel
y s, que tu cuerpo naci¢ de un pincel
y que los cr¡ticos acercan sus gafas al cuadro de Mel.
La gente aplaude sin cesar al autor
por su valor al combinar el color
pero yo prefiero fijarme en la marca de tu ba¤ador.

Nueva York.

            
            
Suggest correction
Creating personal tab
Creating personal tab
You can edit any tab online and save it as your Personal.

You can edit, replace or remove any tab part or add personal notes – all changes will be seen only by you.

Personal tabs can be accessed anytime from any device, even offline.
Learn more »
Give kudos to tab author, rate the tab!
1 2 3 4 5
comments
print report bad tab
guest
Wanna post a correction for this tab? Suggest correction