Oops, an error
Loading. Please wait.

Lagrimas Son chords

version 2
version 2

Whole song

67 views 1 this week
no commentswrite comment
1 2 3 4 5
3 more votes to show rating
add to favorites
×
Save as Personal and add changes to this tab that will be seen only by you. Learn more ›
×
You can save this tab as Personal to edit and correct it or add notes. All changes will be seen only by you. Learn more »
launch autoscroll
font size
0
reset
transpose
0
reset
display chords
guitar tuner
edit
Autoscroll
slow
fast
+/-
esc
set tempo
stop
Strumming
There is no strumming pattern for this song yet. and get +5 IQ
                  G                A                          D
E---109----8-----7----7-----10----9---7----9----7----5--
B---1211---10----8----8-----12---10---9---10----9----7--
G------------------------------------------------------------------
D------------------------------------------------------------------
A------------------------------------------------------------------
E------------------------------------------------------------------

          Bm                 Em
5----9-----7----5----7----5---3
7----10---8-----7----8----7---5
----------------------------------
----------------------------------
----------------------------------
----------------------------------

          A                D                A
---3---7---5---3---5---3---2---2---0----------
---5---8---7---5---7---5---3---3---2----3---2
----------------------------------------4---2
---------------------------------------------------
---------------------------------------------------
-------------------------------------------------- 


         D             A                 D
Lagrimas son las que esta llorando el cielo
Lagrimas son las que estoy llorando yo
         G            A              D
Lagrimas son las que dicen que me duele
   Bm        Em          A         D 
Me mata tu ausencia me apena tu adiós

Si oyes llorar un ave en tu camino
Si ves morir de sed un manantial
Piensa que yo también sin tu presencia 
Sufriendo llorando me muero de amor
          A                              D
Lagrimas son las que al caer me hacen sufrir al recordar
          A                         D
Que nuestro amor tan lindo amor no, no pudo ser
          A                         D               
Te vi partir y se murió el sueño lo azul de la ilusión
 


MUSICA:
                  G                A                          D
E---10-9---8-----7----7-----10----9---7---9-----7----5--
B---1211---10----8----8-----12---10---9---10----9----7--
G------------------------------------------------------------------
D------------------------------------------------------------------
A------------------------------------------------------------------
E------------------------------------------------------------------

     Bm                      Em
5----9----7-----5----7---5---3
7----10---8-----7----8---7---5
----------------------------------
----------------------------------
----------------------------------
----------------------------------

           A               D                A
---3---7---5---3---5---3---2---2---0----------
---5---8---7---5---7---5---3---3---2----3---2
----------------------------------------4---2
---------------------------------------------------
---------------------------------------------------
-------------------------------------------------- 


          A                               D
Lagrimas son las que al caer me hacen sufrir al recordar
          A                         D
Que nuestro amor tan lindo amor no, no pudo ser
         A                           D               
Te vi partir y se murió el sueño lo azul de la ilusión
         G             A           D 
Lagrimas son las que esta llorando mi alma
   Bm         Em       A          D           
Pensando que tienes talvez otro amor
  G   D
Otro amor
Suggest correction
Creating personal tab
Creating personal tab
You can edit any tab online and save it as your Personal.

You can edit, replace or remove any tab part or add personal notes – all changes will be seen only by you.

Personal tabs can be accessed anytime from any device, even offline.
Learn more »
Give kudos to tab author, rate the tab!
1 2 3 4 5
comments
print report bad tab
guest
Wanna post a correction for this tab? Suggest correction