Oops, an error
Loading. Please wait.

Si Acaso Vuelves tab

version 1
version 1

Whole song

116 views 1 this week
no commentswrite comment
1 2 3 4 5
3 more votes to show rating
add to favorites
×
Save as Personal and add changes to this tab that will be seen only by you. Learn more ›
×
You can save this tab as Personal to edit and correct it or add notes. All changes will be seen only by you. Learn more »
launch autoscroll
font size
0
reset
how to read this tab
guitar tuner
edit
Autoscroll
slow
fast
+/-
esc
set tempo
stop
INTRO:

         Ebm                                  C#
e|----8--9-11-11-11-13-14---13-13\11-11\9---9\8-8\6-6-4--4-2-4----|
B|--9-9-11-13-13-13-14-16---14-14\13-13\11-11\9-9\7-7-6--6-4-6----|
G|-10-------------------------------------------------------------|
D|----------------------------------------------------------------|
A|----------------------------------------------------------------|
E|----------------------------------------------------------------|

          Ebm                 C#
e|-----------------------------------------|
B|--------------------------------------6--|
G|-5-6--5-5p3-3-2-3--5-5p3-3-2-3-5-1--1----|
D|-----------------------------------------|
A|-----------------------------------------|
E|-----------------------------------------|

           C#
Si acaso vuelves otra vez

sé que si me ves
 G#7
tienes que llorar.


Al contemplar lo que quedo

de alguien que te amo
 C#
con sinceridad.

       C#7
Yo solamente para ti

fui la diversión
 F#
de tu vanidad.

        C#
Y ya cansado de llorar
 G#
me deje arrastrar
          C#
por la adversidad.

           Ebm
Me fui muy lejos para ver

si acaso me olvidaba
       C#
de lo mucho que te amé.

              Ebm
Busque otros brazos para ver

si acaso me arrancaba
       C#
de la sangre tu querer.

        C#7
Y ya cansado de buscar

donde refugiar
 F#
todo mi sufrir.

         C#
Solo me queda un gran dolor
     G#
por tanto, tanto amor
          C#
que yo te di.

            
            
Suggest correction
Creating personal tab
Creating personal tab
You can edit any tab online and save it as your Personal.

You can edit, replace or remove any tab part or add personal notes – all changes will be seen only by you.

Personal tabs can be accessed anytime from any device, even offline.
Learn more »
Give kudos to tab author, rate the tab!
1 2 3 4 5
comments
print report bad tab
guest
Wanna post a correction for this tab? Suggest correction