Oops, an error
Loading. Please wait.

Al Amanecer chords

version 1
version 1

Whole song

4,161 views 1 this week
2 commentsread comments
1 2 3 4 5
2 more votes to show rating
add to favorites
×
Save as Personal and add changes to this tab that will be seen only by you. Learn more ›
×
You can save this tab as Personal to edit and correct it or add notes. All changes will be seen only by you. Learn more »
launch autoscroll
font size
0
reset
transpose
0
reset
display chords
guitar tuner
edit
Autoscroll
slow
fast
+/-
esc
set tempo
stop
Difficulty
Strumming
There is no strumming pattern for this song yet. and get +5 IQ
A                 E              F#m
  No es que me emocione otro amanecer,
                   D               E       A
  es que es el primero en que me vienes a ver,
                     D          E         A 
  es que yo ya no quiero verlo sola otra vez,
                   E                F#m
  es que sola no tiene gracia ni placer.

  (Un, dos, tres, y...)
 A           E                F#m
  Cuando tus ojos se fijan en mí
                D           E        A
  vivo mil aventuras sin salir de aquí
                  D      E       A
  si te miro no puedo parar de reir
                    E                 F#m
  porque se que tu ves todo lo que yo ví.
                  D          E      A
  Pídeme lo que quieras y diré que sí
                 D        E
  pide una tontería pero nunca...


A A             E    A A          D
  No me faltes nunca, yo tengo derecho a ser feliz.
A A            E    A A            D
  No te vayas lejos, lejos es muy lejos para mí.

 A          E         F#m            D
  Donde vas, volverás, dime que me llevarás.
 A         E       F#m         D       E   A
  Quiéreme, bésame, déjame tu ver al amanecer.


  Y es que si estás cerca me siento mejor.
  Y entre que te conzco eso es mucho mejor.
  Sé que puedo amarte todavía mejor.
  Quiero que me ayudes con la respiración.
  Si me caigo al suelo ya no siento el dolor
  Si te beso y bebo no distingo el sabor.


  No me faltes nunca, yo tengo derecho a ser feliz.
  No te vayas lejos, lejos es muy lejos para mí.

  Donde vas, volverás, dime que me llevarás.
  Quiéreme, bésame, déjame tu ver al amanecer.


  (punteo)


  Cuando tus ojos se fijan en mí
  vivo mil aventuras sin salir de aquí
  si te miro no puedo parar de reir
  porque se que tu ves todo lo que yo ví.
  Pídeme lo que quieras y diré que sí
  pide una tontería pero nunca...

  No me faltes nunca, yo tengo derecho a ser feliz.
  No te vayas lejos, lejos es muy lejos para mí.

  Donde vas, volverás, dime que me llevarás.
  Quiéreme, bésame, déjame tu ver al amanecer.
Suggest correction
Creating personal tab
Creating personal tab
You can edit any tab online and save it as your Personal.

You can edit, replace or remove any tab part or add personal notes – all changes will be seen only by you.

Personal tabs can be accessed anytime from any device, even offline.
Learn more »
Give kudos to tab author, rate the tab!
1 2 3 4 5
comments
print report bad tab
2 comments total.
0 reply
Rideway 10 Jul 03, 2008 06:56 AM

Solo

e------------------------------------------
B-----5---------3----------5---7-7-5-3---3-
G-6-7---6-4-4-6---6--6-6-7---6---------6---
D------------------------------------------
A------------------------------------------
E------------------------------------------

e----------------------------------------
B-----5---------3----------5---7-5-------
G-6-7---6-4-4-6---6--6-6-7---6-----------
D----------------------------------------
A----------------------------------------
E----------------------------------------


Lo que va despues del solo es un Sol y un Mi muteado acompañado por un solo de bajo. Cada compás el guitarra hace
e-12--12---------------------------------------
B-12--12---------------------------------------
G----------------------------------------------

Qué canción!!

0 reply
Rideway 10 Jul 03, 2008 06:56 AM

Solo

e------------------------------------------
B-----5---------3----------5---7-7-5-3---3-
G-6-7---6-4-4-6---6--6-6-7---6---------6---
D------------------------------------------
A------------------------------------------
E------------------------------------------

e----------------------------------------
B-----5---------3----------5---7-5-------
G-6-7---6-4-4-6---6--6-6-7---6-----------
D----------------------------------------
A----------------------------------------
E----------------------------------------


Lo que va despues del solo es un Sol y un Mi muteado acompañado por un solo de bajo. Cada compás el guitarra hace
e-12--12---------------------------------------
B-12--12---------------------------------------
G----------------------------------------------

Qué canción!!

guest
Wanna post a correction for this tab? Suggest correction