Oops, an error
Loading. Please wait.

Sha-La-La tab

version 2
version 2

Whole song

32 views 3 this week
no commentswrite comment
1 2 3 4 5
3 more votes to show rating
add to favorites
×
Save as Personal and add changes to this tab that will be seen only by you. Learn more ›
×
You can save this tab as Personal to edit and correct it or add notes. All changes will be seen only by you. Learn more »
launch autoscroll
font size
0
reset
how to read this tab
guitar tuner
edit
Autoscroll
slow
fast
+/-
esc
set tempo
stop
modificado por RWCh - Dic 2009

Intro, Verso 1, Verso 2, Verso 3 y Verso 4:  (Sonido Limpio)

Riff 1
|--1-2-x-x-2-x-x-2-1-2-x-x-2-x-x-2-1-2-x-x-2-x-x-2-1
|--2-3-x-x-3-x-x-3-2-3-x-x-3-x-x-3-2-3-x-x-3-x-x-3-2
|--1-2-x-x-2-x-x-2-1-2-x-x-2-x-x-2-1-2-x-x-2-x-x-2-1
|---------------------------------------------------
|---------------------------------------------------
|---------------------------------------------------

Riff 2
|--1-2-x-x-2-x-x-2-1-2-x-x-2-x-x-2-1-2-x-x-2-x-x-2-1
|--2-3-x-x-3-x-x-3-2-3-x-x-3-x-x-3-2-3-x-x-3-x-x-3-2
|--3-4-x-x-4-x-x-4-3-4-x-x-4-x-x-4-3-4-x-x-4-x-x-4-3
|---------------------------------------------------
|---------------------------------------------------
|---------------------------------------------------

................

Intro: Riff 1

Verso 1:
Riff 1                                 Riff 2
6 de la mañana presentame a tu hermana
Riff 1                                 Riff 2
la llevo a la esquina y le doy una propina

Bridge:

G5            A5  G5                A5
Y apaguen la tele, y prendan otro más

G5              A5
no hay nada mejor que cantar

Repetir Intro:

Verso 2:

Riff 1                                 Riff 2
Joel en la cocina, prepara medicina (aha ha aha ha)
Riff 1                                 Riff 2
Lola 1000 pastillas la sacan en camilla (aha ha aha ha)

Bridge:  (Sonido Distorsionado)

G5            A5  G5                A5
Y apaguen la tele, y prendan otro mas

G5              A5
no hay nada mejor que cantar

CORO:  (Sonido Distorsionado)

 D            Bm              G5            A5             D

Laa, Sha-la-la-la, sha-la-la-la, sha-la-la-la, ooh ooh laa

D            Bm              G5            A5

Sha-la-la-la, sha-la-la-la, sha-la-la-la, ooh ooh laa

Solo:

|-------------------------------------------------------
|-------------7-----------7----5-6b-5---------5-6b-5----
|---------4-7---------4-7---5h7------7-4--5h7-------7-4-
|-----4-7---------4-7-----------------------------------
|--/5----------/5---------------------------------------
|-------------------------------------------------------


|-------------------------------------------------------
|-------------7-----------7----------10-10--------------
|---------4-7---------4-7---5h7-9-11-------12-11-12-11--
|-----4-7---------4-7-----------------------------------
|--/5----------/5---------------------------------------
|-------------------------------------------------------


(En este verso, se toca lo mismo que en los otros versos y en la intro pero
haciendo Palm Mute a los acordes)

Verso 3: (Sonido: Palm Mute)

Todos los momentos, aquellos buenos tiempos
se van a la deriva y no hay nada que lo impida

(Aca ya se toca normal)

Verso 4:
Riff 1                                 Riff 2
6 de la mañana, camino a la fama  (aha ha aha ha)
Riff 1                                 Riff 2
pero la policía me dio su porquería (aha ha aha ha)


Bridge:  (Sonido Distorsionado)

G5            A5  G5                A5
Y apaguen la tele, y prendan otro más

G5              A5
no hay nada mejor que cantar

CORO:  (Sonido Distorsionado)

 D            Bm              G5            A5             D

Laa, Sha-la-la-la, sha-la-la-la, sha-la-la-la, ooh ooh laa

D            Bm              G5            A5

Sha-la-la-la, sha-la-la-la, sha-la-la-la, ooh ooh laa

|--------------------------------------------------------
|--------------------------------------------------------
|--------------------------------------------------------
|----4-2-0---4-2-0--4-2-0-2----2-4-5-4-2-7----7-5-4--7---
|-/5-------/5-----/5-------------------------------------
|--------------------------------------------------------


|--------------------------------------------------------
|---------------10--10---------------10------------------
|------------9b---9b---9-9-11-12-11----------------------
|-7-5-4--------------------------------------------------
|-------5------------------------------------------------
|--------------------------------------------------------


CORO:  (Sonido Distorsionado)

 D            Bm              G5            A5             D

Laa, Sha-la-la-la, sha-la-la-la, sha-la-la-la, ooh ooh laa

D            Bm              G5            A5

Sha-la-la-la, sha-la-la-la, sha-la-la-la, ooh ooh laa

D            Bm              G5            A5             D

Laa, Sha-la-la-la, sha-la-la-la, sha-la-la-la, ooh ooh laa

D            Bm              G5            A5

Sha-la-la-la, sha-la-la-la, sha-la-la-la, ooh ooh laa

            
            
Suggest correction
Creating personal tab
Creating personal tab
You can edit any tab online and save it as your Personal.

You can edit, replace or remove any tab part or add personal notes – all changes will be seen only by you.

Personal tabs can be accessed anytime from any device, even offline.
Learn more »
Give kudos to tab author, rate the tab!
1 2 3 4 5
comments
print report bad tab
guest
Wanna post a correction for this tab? Suggest correction