Oops, an error
Loading. Please wait.

Adieu! Bye Bye! Aufwiedersehen tab

version 1
version 1

Whole song

56 views 1 this week
no commentswrite comment
1 2 3 4 5
3 more votes to show rating
add to favorites
×
Save as Personal and add changes to this tab that will be seen only by you. Learn more ›
×
You can save this tab as Personal to edit and correct it or add notes. All changes will be seen only by you. Learn more »
launch autoscroll
font size
0
reset
how to read this tab
guitar tuner
edit
Autoscroll
slow
fast
+/-
esc
set tempo
stop
intro:
 ***Bajo***
    MI                               LA   MI                          SI
G|--------------|-----------------------|------------|-------------------|
D|--------------|-----------------------|------------|-------------------|
A|----777-5-7---|----7-5h7-77-5-7/---10-|----777-5-7-|----7-5h7-77-5-7---|
E|-(0)----------|-(0)-------------------|-(0)--------|-(0)------------(7)|
*Guitarra 1:
       MI           SOL            MI              SI
E|------------|--------------|------------|------------------|----||
B|--55555555/-|--888888888---|--55555555/-|------12----------|----||
G|------------|--------------|------------|------------------|-X2-||
D|------------|--------------|------------|------------------|----||
A|------------|--------------|------------|------------------|----||
E|------------|--------------|------------|------------------|----||
*Guitarra 2:
       MI           SOL            MI              SI
E|------------|--------------|------------|------------------|----||
B|------------|--------------|------------|------------------|----||
G|------------|--------------|------------|------------------|-X2-||
D|--99999999/-|-121212121212-|--99999999/-|-1616161616161616-|----||
A|--77777777/-|-101010101010-|--77777777/-|-1414141414141414-|----||
E|------------|--------------|------------|------------------|----||

1er VERSO:
*********
*Guitarra:
      LA         SI         DO         LA
E|-----------|----------|-----------|----------|----||
B|-----------|----------|-----------|----------|----||
G|-----------|----------|-----------|----------|-X2-||
D|--7-x-7----|--9--x-9--|-10-x-10---|--7--x-7--|----||
A|--7-x-7----|--9--x-9--|-10-x-10---|--7--x-7--|----||
E|--5-x-5----|--7--x-7--|--8-x--8---|--5--x-5--|----||
LA             SI                 DO         LA
Llegando al final el cree que la línea se cortó.
                                   (-Sexi bomba!
                             y el chulo Cheche!)
LA                   SI              DO        LA
Las cuentas... las deudas que entretenía ya pagó.
              LA
Se siente en paz... Adieu! Bye bye!

1er ESTRIBILLO:
**************
*Guitarra 1:
       MI           SOL            MI              SI
E|------------|--------------|------------|------------------|----||
B|--55555555/-|--888888888---|--55555555/-|------12----------|----||
G|------------|--------------|------------|------------------|-X2-||
D|------------|--------------|------------|------------------|----||
A|------------|--------------|------------|------------------|----||
E|------------|--------------|------------|------------------|----||
*Guitarra 2:
       MI           SOL            MI              SI
E|------------|--------------|------------|------------------|----||
B|------------|--------------|------------|------------------|----||
G|------------|--------------|------------|------------------|-X2-||
D|--99999999/-|-121212121212-|--99999999/-|-1616161616161616-|----||
A|--77777777/-|-101010101010-|--77777777/-|-1414141414141414-|----||
E|------------|--------------|------------|------------------|----||
MI                  SOL         MI            SI
La vio bailar en la barra americana y no dio más!
MI                    SOL                      MI         SI
(no es la chanchita Rivera quien pierde el dinero de su bar...)

2do VERSO: (igual que el 1er Verso)
*********
LA          SI               DO            LA
Con juego o sin juego nunca pide un naipe más
                                 -(Sexi bomba!
                           y el chulo cheche!)
LA             SI              DO       LA
Con sus bolas llenas de celulitas cálidas
             LA
se siente en paz... Adieu! Bye bye!

2do ESTRIBILLO: (igual que el 1er Estribillo)
**************
MI              SOL           MI                     SI
Las últimas aventuras, victorias oscuras de viejos trips.
MI                SOL                  MI                  SI
(Es otro más prisionero, que se toma en serio el juego de amar)

SOLO DE GUITARRA:
****************
*Guitarra 1:
E|--------------------------------------------------|----||
B|-13b-13-12-13-12----------------------------------|----||
G|-----------------14----12-14-14b-14-12-14---------|-X2-||
D|--------------------14--------------------(14)~~~-|----||
A|--------------------------------------------------|----||
E|--------------------------------------------------|----||
*Guitarra 2:
      LA         SI         DO         LA
E|----------|----------|-----------|----------|----||
B|----------|----------|-----------|----------|----||
G|----------|----------|-----------|----------|-X2-||
D|--7--x-7--|--9--x-9--|-10-x-10---|--7--x-7--|----||
A|--7--x-7--|--9--x-9--|-10-x-10---|--7--x-7--|----||
E|--5--x-5--|--7--x-7--|--8-x--8---|--5--x-5--|----||

3er VERSO:
*********
*Guitarra 1:    Riff 1                       Riff 2
E|------------------------------|--------------------------------|
B|------------------------------|--------------------------------|
G|------------------------------|--------------------------------|
D|------------------------------|--------------------------------|
A|-2-2-(2)--2-2-2-2-2-2-2-2-2-2-|-2-2-(2)--2-2-2-2-2-2-2-2-2-1/2~|
E|-0-0-(0)--0-0-0-3^0^3^0^3^0-3~|-0-0-(0)--0-0-0-3^0^3^0^3^0-----|
              Riff 1                       Riff 3
--|------------------------------|--------------------------|
--|------------------------------|--------------------------|
--|------------------------------|--------------------------|
--|------------------------------|--------------------------|
--|-2-2-(2)--2-2-2-2-2-2-2-2-2-2-|-2-2-(2)-2-2-2--2x-2-2----|
--|-0-0-(0)--0-0-0-3^0^3^0^3^0-3~|-0-0-(0)-0-0-0--3x-3-3----|
*Guitarra 2:
       MI           SOL            MI              SI
E|------------|--------------|------------|------------------|----||
B|--55555555/-|--888888888---|--55555555/-|-----12-----------|----||
G|------------|--------------|------------|------------------|-X2-||
D|------------|--------------|------------|------------------|----||
A|------------|--------------|------------|------------------|----||
E|------------|--------------|------------|------------------|----||
 |________________________________________________________________||
                 **Esto se toca muy despacio**

 Riff 1                           Riff 2
El pibe que sabe mucho sobre la muerte viste bien. (Aufwiedersehen!)
 Riff 1                            Riff 3
con su ropa de plomero, olor a leyenda va a tener...
INTERMEDIO:
**********
*Guitarra 1:
E|-------------------(12)-|------------------------------|--------
B|----12-(13)--13-15------|----12-(13)---15-13-(12)------|----12--
G|-14---------------------|-14----------------------(14)-|-14-----
D|------------------------|------------------------------|--------
A|------------------------|------------------------------|--------
E|------------------------|------------------------------|--------
-------------(12)-|-12-15-12----------|
-(13)--13-15------|----------13-12----|En realidad aca toca un violin
------------------|----------------14-|pero hice un arreglo para que
------------------|-------------------|quede bien con la guitarra...
------------------|-------------------|
------------------|-------------------|
*Guitarra 2:
E|------------------------|------------------------------|--------
B|------------------------|------------------------------|--------
G|------------------7-(9)-|--------------7---------------|--------
D|-7--9--(10)---10--7-(9)-|-7--9--(10)---7--10--(9)--(7)-|--7--9--
A|-7--9--(10)---10--5-(7)-|-7--9--(10)---5--10--(9)--(7)-|--7--9--
E|-5--7--(-8)----8--------|-5--7--(-8)-------8--(7)--(5)-|--5--7--
------------------|-------------------|
------------------|-------------------|
------------7-(9)-|-9--11--9----------|
--(10)--10--7-(9)-|-9--11--9--10--9-7-|
--(10)--10--5-(7)-|-7---9--7--10--9-7-|
--(-8)---8--------|------------8--7-5-|

*********
Sigue con: [Riff 1-Riff 2-Riff 1-Riff 3]
*********

4to Verso:
*********
LA          SI               DO            LA
Se cree un campeón veloz, su cacharro está muy mal
                                     -(Sexi bomba!
                               y el chulo cheche!)
LA             SI              DO       LA
Ella es dueña de fuerzas de amor... Bloody filha da puta!
             LA
se siente en paz... Adieu! Bye bye!

4to Estribillo:
**************
 Riff 1                           Riff 2
Vomitando en la cochera, ríe y promete un trago más.
                                   (Aufwiedersehen!)
 Riff 1                                 Riff 3
antes de juntar pelusa huye del día, así, sin más.

Final...
*Guitarra:   *La   ..Se siente en paz..        *Do      ..Adieu! bye bye!
E|---------------|-------------------|----------------|-----------------/
B|---------------|-------------------|----------------|-----------------/
G|---------------|-------------------|----------------|-------------(5)-/
D|----------(7)--|---------------(9)-|--------(10)----|-------------(7)-/
A|----------(7)--|---------------(9)-|--------(10)----|-------------(7)-/
E|----------(5)--|---------------(7)-|--------(-8)----|-------------(5)-/
   Solita, llora..               *Si  ..Y como siempre..             *La
FIN..

               ***Te AmO NeGrA***


aceptenla che....esta vercion esta perfecta...
el bajo esta perfecto y nadie lo pudo sacar todavia

            
            
Suggest correction
Creating personal tab
Creating personal tab
You can edit any tab online and save it as your Personal.

You can edit, replace or remove any tab part or add personal notes – all changes will be seen only by you.

Personal tabs can be accessed anytime from any device, even offline.
Learn more »
Give kudos to tab author, rate the tab!
1 2 3 4 5
comments
print report bad tab
guest
Wanna post a correction for this tab? Suggest correction