Oops, an error
Loading. Please wait.

Bebamos De Las Copas Lindas tab

version 1
version 1

Whole song

110 views 1 this week
no commentswrite comment
1 2 3 4 5
3 more votes to show rating
add to favorites
×
Save as Personal and add changes to this tab that will be seen only by you. Learn more ›
×
You can save this tab as Personal to edit and correct it or add notes. All changes will be seen only by you. Learn more »
launch autoscroll
font size
0
reset
how to read this tab
guitar tuner
edit
Autoscroll
slow
fast
+/-
esc
set tempo
stop
Bebamos de las copas lindas: Indio Solari

AL PRINCIPIO UNA GUITARRA HACE ESTO?

E/-----------------------------------------------
A/-----------------------------------------------
D/-----------------------------------------------
G/------9----------9-11------------------------
B/---------12-12----------9--------------------
E/------------------------------------------------

DESPUES HACE ESTO LA OTRA GUITARRA

E/-----------------------------------------------------------------
A/-----------------------------------------------------------------
D/--------------------------------------------------9-12-9---------
G/-7-9-9-7-----7-9----------7-9----------------11-9---------9-9-9-9
B/------9----------9-10-9-------9-10-12-14-12-9--------------------
E/-----------------------------------------------------------------

SIGUE ASI?

E/---------------------------------------------------------
A/--7-9------9-7----7-4-7-----7-9-----9-7------------7-----
D/--------6--------6----------------------6-------6-7-9-6--
G/---------------------------------------------------------
B/---------------------------------------------------------
E/---------------------------------------------------------

MI
Donde hay dolor habrá canciones
Acabo de perderlo todo,
LA
Bebamos de las copas mas lindas que tenemos hoy?
MI
No se que pudo haber pasado
SOL
Y esto no es más que un himno
LA
De amarguras de amor?

MI
Te traicionaban tus amigas
Y justo saltaban las tostadas,
LA
Bebamos de las copas mas lindas que tenemos hoy?
MI
Voy a correr como un conejo
SOL
Que es lo que hace cualquiera
LA
Eso es lo que haces vos?

Intermedio: SIm

SOL
Ya vi. caer la estrella
LA
Tu deseo se cumplió,
MI
Quedo la marca de tus labios
En esa copa ya vacía?
LA
Brindemos por los rayos
De la luz que me alumbra hoy?
MI
Tuve una enfermedad malvada
 SOL
Y esto no es más que un himno
LA
De amarguras de amor?


FINAL: MI

            
            
Suggest correction
Creating personal tab
Creating personal tab
You can edit any tab online and save it as your Personal.

You can edit, replace or remove any tab part or add personal notes – all changes will be seen only by you.

Personal tabs can be accessed anytime from any device, even offline.
Learn more »
Give kudos to tab author, rate the tab!
1 2 3 4 5
comments
print report bad tab
guest
Wanna post a correction for this tab? Suggest correction