Oops, an error
Loading. Please wait.

El Tesoro De Los Inocentes tab

version 4
version 4

Whole song

71 views 1 this week
no commentswrite comment
1 2 3 4 5
3 more votes to show rating
add to favorites
×
Save as Personal and add changes to this tab that will be seen only by you. Learn more ›
×
You can save this tab as Personal to edit and correct it or add notes. All changes will be seen only by you. Learn more »
launch autoscroll
font size
0
reset
how to read this tab
guitar tuner
edit
Autoscroll
slow
fast
+/-
esc
set tempo
stop
Este es el tema con un par de correcciones
de los mandados anteriormente:

Intro:
   Riff de Base            DO5
e||--------------------|  |----------------------||
B||--8-7-5---5---8-7---|  |-15--15--15--15--15---||
G||--------7-----------|  |---12--12--12--12--12-||
D||--------------------|  |----------------------||
A||--------------------|  |----------------------||
E||--------------------|x3|----------------------||
   Riff de Base            DO5
e||--------------------|  |----------------------||
B||--8-7-5---5---8-7---|  |-15--15--15--15--15---||
G||--------7-----------|  |---12--12--12--12--12-||
D||--------------------|  |----------------------||
A||--------------------|  |----------------------||
E||--------------------|x3|----------------------||
   SOL5                     RE5
e||---------------------|  |-----------------------------------||
B||-13-12-10----10---12-|  |-8--10--8--10--8--10--12--10--8-8^-||
G||----------12---------|  |-----------------------------------||
D||---------------------|  |-----------------------------------||
A||---------------------|  |-----------------------------------||
E||---------------------|x2|-----------------------------------||

 ||Riff                       ||
e||---------------------------||
B||---------------------------||
G||-(9)-9-/--(7)-9-9--7-(9)---||
D||-(9)-9-/--(7)-9-9--7-(9)---||
A||-(7)-7-/--(5)-7-7--5-(7)---||
E||---------------------------||

Verso 1:

Riff
El tesoro que no ves
La inocencia que no ves
                          RE5 - DO5
Los milagros que van a estar de tu lado
            (RE5-MI5) Riff 1
Cuando comiences a leer de los labios

Y a ignorar los embustes y gustar
Con tu lengua de las aguas que son dulces
Aunque te sientas mal.

Estribillo:
SOL5                               RE5
Si no hay amor que no haya nada entonces, alma mía
¡No vas a regatear!

Verso 2:(Igual)
¡Un hermoso día el de hoy!
¡Ay! ¡Qué bello día es hoy!
Está para desatar nuestra tormenta
Que va a tronar por el dolor

Juegan a 'primero yo' y después a'también yo'
Y a 'las migas para mi' y cierran el juego porqué ya
Saben que?

Estribillo:(igual)
el tonto nunca puede oler al diablo (¡vida mía!)
Ni si caga en su nariz.

Intro

Solo (Intro De Base)

Verso 3:(igual)

Esa mancha que está allí?
Por allí? ¡En el suelo! ¡Allí!
Y en tu bella cicatriz
Parece sangre y sin embargo sonreís.

¡El tesoro que no ves!
¡La inocencia que no ves!
El placer es tan oscuro como el culo de un topo negro

Estribillo:(igual)
Y si no hay amor que no haya nada entonces, alma mía
¡No vas a regatear!

Verso Final:(con riff)
Placer que es cruel
(le echás el aguante
sin lágrimas?
a tu pena allí nomás)
?y el mundo allí nomás.
El sol cocina lento?
Placer que es cruel
(Vos siempre estás con una excusa a flor de labios?
sin lágrimas?
con tus dolores allí nomás
y el mundo allí nomás, sin vida
Con tu sangre en el suelo?

Fade out...

Cada verso lo dividi en dos, por que es igual
a la primera parte del verso

Aguanten los redondos!!

            
            
Suggest correction
Creating personal tab
Creating personal tab
You can edit any tab online and save it as your Personal.

You can edit, replace or remove any tab part or add personal notes – all changes will be seen only by you.

Personal tabs can be accessed anytime from any device, even offline.
Learn more »
Give kudos to tab author, rate the tab!
1 2 3 4 5
comments
print report bad tab
guest
Wanna post a correction for this tab? Suggest correction