Oops, an error
Loading. Please wait.

Flight 956 tab

version 3
version 3

Whole song

33 views 1 this week
no commentswrite comment
1 2 3 4 5
3 more votes to show rating
add to favorites
×
Save as Personal and add changes to this tab that will be seen only by you. Learn more ›
×
You can save this tab as Personal to edit and correct it or add notes. All changes will be seen only by you. Learn more »
launch autoscroll
font size
0
reset
how to read this tab
guitar tuner
edit
Autoscroll
slow
fast
+/-
esc
set tempo
stop
Le cambio un par de cosas que estan mal

Riff de la intro:
e|------------------------|---------------------|--|
b|--6-5---8-8^9^8--6-5-6--|--6-5---8-8^9^8--6---|--|
g|------5-----------------|------5------------5-|--|
d|------------------------|---------------------|x2|
a|------------------------|---------------------|--|
E|------------------------|---------------------|--|
Otra guitarra:
e|----------------------------|----------------------------|--|
b|----------------------------|----------------------------|--|
g|-----------0----------------|------------0---------------|--|
d|---0--2--3---3--2-0----0^2--|---0--2--3---3--2--0---2----|x1|
a|-3------------------3-------|-3------------------------3-|--|
E|----------------------------|----------------------------|--|

F* =  E A D G B E
      x 3 3 2 1 0


C                   F*
Parece que en el final
C                     F*
no me saldre con la mia mi amor
C             F*            C      F*
deberia chequear mi contestardor

C           F*         C              F*
Flight Nine Five Six, voy a extrañar
C            F*         C          F*
tu belleza es como un resplandor.

Estoy tan cansado que
no tengo fuerzas para discutir
Es tan triste esta vez que no puedo hablar

Flight Nine Five Six, el tiempo dira
yo se que vos vas a regresar

F            Em          Am
Disculpa mis actos de hampon
F                 Em                    G
siempre hay quilombitos en un cielo de dos
        F      Em      Am
Y nunca hay terreno sagrado amor
        F     Em               G
y es dificil no ser injusto con vos,
Cuando escapas en tu ...

C            F*           C         F*
Flight Nine Five Six intento reir
C            F*           C         F*
Dios no esta en los detalles de hoy

C             F*                 C                    F*
sera un melodrama vulgar, pasado dos meses nos consolaran
C               F*           C                F*
lloraras con un ojo y con el otro te reias

Flight Nine Five Six, voy a extrañar
tu belleza es como un resplandor.
Suggest correction
Creating personal tab
Creating personal tab
You can edit any tab online and save it as your Personal.

You can edit, replace or remove any tab part or add personal notes – all changes will be seen only by you.

Personal tabs can be accessed anytime from any device, even offline.
Learn more »
Give kudos to tab author, rate the tab!
1 2 3 4 5
comments
print report bad tab
guest
Wanna post a correction for this tab? Suggest correction