Oops, an error
Loading. Please wait.

La Muerte Y Yo tab

version 1
version 1

Whole song

23 views 1 this week
no commentswrite comment
1 2 3 4 5
3 more votes to show rating
add to favorites
×
Save as Personal and add changes to this tab that will be seen only by you. Learn more ›
×
You can save this tab as Personal to edit and correct it or add notes. All changes will be seen only by you. Learn more »
launch autoscroll
font size
0
reset
how to read this tab
guitar tuner
edit
Autoscroll
slow
fast
+/-
esc
set tempo
stop
Intro:
Guitarra:        Parte 1
E|-----------------|-----------|----|
B|-----------------|-----------|----|
G|-5/7--(5)--5/(7)-|--7/9/(7)--|-X2-|
D|-5/7--(5)--5/(7)-|--7/9/(7)--|----|
A|-----------------|-----------|----|
E|-----------------|-----------|----|


1er Verso:  (todo con arpegios de SIm)
*********

Guitarra:
      SIm          SIm          SIm         SIm
E|-----------|-------------|-----------|-----------|
B|-------(2)-|-------2-(3)-|-------(2)-|-----2-----|
G|-----4-----|-----4-------|-----4-----|-------(4)-|
D|---4-------|---4---------|---4-------|---4-------|
A|-2---------|-2-----------|-2---------|-2---------|
E|-----------|-------------|-----------|-----------|


 "Cosa dificil de hacer
 como volver a la vida peces
 y que así puedan nadar otar vaz
 en mi sopa de pescado"


1er Estibillo:  (todo con Parte 1) X4
*************

 "La muerte y yo...
 y siempre Dios contra todos.
 Un pie en el tren
 y otro en el andén, ardiendo..."


2do Verso:  (todo con arpegios de SIm)
*********

 "Me he puesto grande, ya ves
 sólo le pido a la vida que no me duela
 y no estar quí si cae más mierda del cielo"


2do Estribillo:  (todo con Parte 1) X4
**************

 "miro amis pies y por distración
 recorto mis uñas secas, no son mías ya...
 Te digo adiós para bromear -"que el señor te rebendiga!"-


3er Verso:  (todo con arpegios de SIm)
*********

 "No sirvo y nunca serví para tristes despedidas
 pobre mi amor! berndito amor! va saturando un pañuelo"


Solo de Guitarra:
****************

Guitarra
E|------------------------|----------------------------|-------------
B|------------------------|----------------------------|-------------
G|------------------------|------------5~--------------|-------------
D|--------5-7-5--7p5------|--------5-7----7p5----------|--------5-7--
A|--5-7-8------------(7)~-|--5-7-8------------(8)~(7)~-|--5-7-8------
E|------------------------|----------------------------|-------------

--------------|---------------------------|
--------------|---------------------------|
-7-6----------|---------------------------|
-----7-8-(7)~-|-------5-7-----------------|
--------------|-5-7-8-----8-(7)-7-5-4-5---|
--------------|-------------------------7-|


4to Verso:  (todo con arpegios de SIm)
*********

 "La larga sombra que vi el la de mi pasado
 un paraíso de amor que viví en el corazón del infierno..."


3er Estribillo:  (todo con Parte 1) X4
**************

 "Y nunca más...(ella sigue allí)
 yo nunca más tendré miedo...(luz crepuscular)
 cuando esa luz que crece en mí
 sea la que domine el cielo..."


Final:
*****
      SIm          SIm          SIm            SIm
E|-----------|-------------|-----------|-----------------|
B|-------(2)-|-------2-(3)-|-------(2)-|---------(2)-----|
G|-----4-----|-----4-------|-----4-----|-------------(4)-|
D|---4-------|---4---------|---4-------|-----(4)---------|
A|-2---------|-2-----------|-2---------|-(2)-------------|
E|-----------|-------------|-----------|-----------------|

 "Me va alumbrando la luz de los que no respiran..."

            
            
Suggest correction
Creating personal tab
Creating personal tab
You can edit any tab online and save it as your Personal.

You can edit, replace or remove any tab part or add personal notes – all changes will be seen only by you.

Personal tabs can be accessed anytime from any device, even offline.
Learn more »
Give kudos to tab author, rate the tab!
1 2 3 4 5
comments
print report bad tab
guest
Wanna post a correction for this tab? Suggest correction