Oops, an error
Loading. Please wait.

Martinis Y Tafiroles tab

version 2
version 2

Whole song

20 views 1 this week
no commentswrite comment
1 2 3 4 5
3 more votes to show rating
add to favorites
×
Save as Personal and add changes to this tab that will be seen only by you. Learn more ›
×
You can save this tab as Personal to edit and correct it or add notes. All changes will be seen only by you. Learn more »
launch autoscroll
font size
0
reset
how to read this tab
guitar tuner
edit
Autoscroll
slow
fast
+/-
esc
set tempo
stop
Intro

A                F#      G

e|------------------------------------------------
B|-------10-8-7-------7---10-8-7------------------
G|-9-9-9--------9-7-9---9--------9-7h9------------    (X2)
D|------------------------------------------------
A|------------------------------------------------
E|------------------------------------------------

La base se hace asi

 |  A5     | F#5  | G5
e|------------------------------------------------
B|-----------------------------------------------
G|------------------------------------------------
D|-7--7-7-7--4-4--4h5-5---------------------------
A|-7--7-7-7--4-4--4h5-5---------------------------
E|-5--5-5-5--2-2--2h3-3---------------------------

despues sifue haciendo la misma base y otra guitarra toca:
riff1
e|--------------------------------------------------------
B|---------7-------7-------------7-------7-10-------------
G|-----9-----9-7-9------------9-----9-7-9-----------------
D|-7-7-9--7---------------7-7-9--7------------------------
A|-0-0--------------------0-0-----------------------------
E|--------------------------------------------------------

Durante la cancion hace la misma base, con los acordes en cejilla.
Y la otra guitarra hace:
riff2
e|-------------------------------|------------------------------
B|-----------7---10-8-7-------7--|-----------7---10-8-7-8-10----
G|-6-9-9-6-9------------9-7-9----|-6-9-9-6-9--------------------
D|-------------------------------|------------------------------
A|-------------------------------|------------------------------
E|-------------------------------|------------------------------


En toda la cancion hace la misma base y alterna el riff1 y el riff 2.
la flecha indica que hay que "arrastrar" desde F# hasta G.
hay que hacer los acordes con cejilla

A          F#-->G
 Suele pasarme
A              F#-->G
 Olvido lo que importa más
A           F#-->G
 Y dados redondos
A           F#-->G
 Tuercen mi chance


A veces exagero mi humor
los martinies y los tafiroles
hay que estar un porquito sonado
para olvidarte


Estoy complicado
no me hago ilusiones
y no quiero recuerdos lindos


Necesito dormir mucho y bien
y no hablar asi como toda la mierda
que se habla hoy por la tv,
que come mis ojos

Solo sobre
 |  E5     |C#-D5| D5
e|------------------------------------------------
B|------------------------------------------------
G|------------------------------------------------
D|-----------7-7--7-7-7---------------------------
A|-2--2-2-2--4-4--4h5-5---------------------------
E|-0--0-0-0---------------------------------------

y toca un punteo parecido a esto. improvisen en la escala de G,
ya que toca el tema en modo frigio, es decir que usa la escala
de la tercer nota relativa a la primera.

e|-12---12------------------------------------------------
B|-15hb--15hb--12----------12-----------------------------
G|----------------14-12----12-14-12-14--------------------
D|----------------------14----14-12-14--------------------
A|--------------------------------------------------------
E|--------------------------------------------------------


e|-------15--17-17-15----15------17hb-15-17hb-15-17hb-
B|-15h17--------------17----17------------------------
G|----------------------------------------------------
D|----------------------------------------------------
A|----------------------------------------------------
E|----------------------------------------------------

e|---------15------------15---
B|17-15-17----17---15h17------
G|----------------------------
D|----------------------------
A|----------------------------
E|----------------------------


e|--------------------------------------------------------
B|-15-12----------12--------------------------------------
G|-------14-12-14---14-12----------12---------------------
D|------------------------14-12h14---14-------------------
A|--------------------------------------------------------
E|--------------------------------------------------------

Un viajero frecuente que lee
su millaje y chupa un limon
sabe que en su heladera no hay
ni ketchup ni nada


Me sueño durmiendo,
a veces durmiendo y soñando
si mi perra maulla al soñar
la consiento


termina el tema con un solo con la base del primer solo,
y toca en escalas de G.


Espero que les guste, solo me falta ese detalle del segundo solo.
Gracias! Jeroopr

            
            
Suggest correction
Creating personal tab
Creating personal tab
You can edit any tab online and save it as your Personal.

You can edit, replace or remove any tab part or add personal notes – all changes will be seen only by you.

Personal tabs can be accessed anytime from any device, even offline.
Learn more »
Give kudos to tab author, rate the tab!
1 2 3 4 5
comments
print report bad tab
guest
Wanna post a correction for this tab? Suggest correction