Oops, an error
Loading. Please wait.

Nike Es La Cultura tab

version 1
version 1

Whole song

28 views 1 this week
no commentswrite comment
1 2 3 4 5
3 more votes to show rating
add to favorites
×
Save as Personal and add changes to this tab that will be seen only by you. Learn more ›
×
You can save this tab as Personal to edit and correct it or add notes. All changes will be seen only by you. Learn more »
launch autoscroll
font size
0
reset
how to read this tab
guitar tuner
edit
Autoscroll
slow
fast
+/-
esc
set tempo
stop
Intro: ( O:56 min.) aprox.
*****

*Guitarra 1:
E|----------------------|----------------------|----|
B|----------------------|----------------------|----|
G|----------%-----------|----------%-----------|-X2-|
D|----------------------|----------------------|----|
A|----------------------|----------------------|----|
E|----------------------|----------------------|----|

*Guitarra 2:
E|----------------------|----------------------|----|
B|----------------------|----------------------|----|En la segunda
G|----------------------|----------------------|-X2-|vuelta empieza
D|----------------------|----------------------|----|con distorción y
A|------------------5-7-|------------------5-7-|----|sin palm mute
E|-7--7-7--7-7--7-7-----|-7--7-7--7-7--7-7-----|----|
PM .  . .  . .  . .       .  . .  . .  . .


*Guitarra 1:
E|---------------------|---------------------|--7--7-7---7-7---7-7--|
B|-----------(7)~------|---------------------|--7--7-7---7-7---7-7--|
G|---(9b)~-------------|---------%-----------|--7--7-7---7-7---7-7--|
D|---------------------|---------------------|----------------------|
A|---------------------|---------------------|----------------------|
E|---------------------|---------------------|----------------------|

*Guitarra 2:
E|---------------------|---------------------|----------------------|
B|---------------------|---------------------|----------------------|
G|---------------------|---------------------|----------------------|
D|---------------------|---------------------|----------------------|
A|------------7-7--5---|------------7-7--5---|-------------7-7--5---|
E|-7-7-7--7-7--------7-|-7-7-7--7-7--------7-|-7--7-7--7-7--------7-|

                      _________X3_________
*Guitarra 1:         |                    |
E|------------------|----------------------|--10-9-7--(9br)---|
B|------------------|--------10--9-----7---|------------------|
G|-------%----------|-(9br)---------9------|------------------|
D|------------------|----------------------|------------------|
A|------------------|----------------------|------------------|
E|------------------|----------------------|------------------|
                      _________X3_________
*Guitarra 2:         |                    |
E|------------------|----------------------|------------------|
B|------------------|----------------------|------------------|
G|------------------|----------------------|------------------|
D|--7---7---7---7---|----------------------|--7---7---7---7---|
A|----9---9---9-----|-------------7-7--5---|----9---9---9-----|
E|------------------|-7--7-7--7-7--------7-|------------------|


*Guitarra 1:
E|-------------|-------------|-10-9-8-7-(9b)-|------------9-7-(9b)|
B|-------------|-------------|---------------|--------------------|
G|-(9br)-(9b)~-|-(9br)-(9b)~-|---------------|(9br)-(9b)~---------|
D|-------------|-------------|---------------|--------------------|
A|-------------|-------------|---------------|--------------------|
E|-------------|-------------|---------------|--------------------|

*Guitarra 2:
   ____________________________riff 1____________________________
  |                                                              |
E|-------------|-------------|---------------|--------------------|
B|-------------|-------------|---------------|--------------------|
G|-------------|-------------|---------------|--------------------|
D|------9-7-5--|------9-7-5--|------9--7--5--|--7----7----7----7--|
A|-(9)---------|-(9)---------|-(9)-----------|-----9----9----9----|
E|-------------|-------------|---------------|--------------------|


*Guitarra 1:
E|-(7)------------|-(7)------------|-(7)------------|--------------|
B|-----10-9-7-9-10|-----10-9-7-9-10|-----10-9-7-9-10|--------------|
G|----------------|----------------|----------------|--------%-----|
D|----------------|----------------|----------------|--------------|
A|----------------|----------------|----------------|--------------|
E|----------------|----------------|----------------|--------------|

*Guitarra 2:
   _____________________________riff 2______________________________
  |                                                                 |
E|----------------|----------------|----------------|---------------|
B|----------------|----------------|----------------|---------------|
G|----------------|----------------|----------------|---------------|
D|--(9)--9--7-5---|-------9--7-5---|-------9--7-5---|-7---7---7---7-|
A|----------------|--(9)-----------|--(9)-----------|----9---9---9--|
E|----------------|----------------|----------------|---------------|


Verso 1: (sobre riff 1) X2
*******


"Vas corriendo con tus nikes

y las balas van detrás
  fill 1      fill 1        fill 1
(lo que duele no es la goma sino su velocidad)."


*Guitarra 1:             fill 1            fill 1
E|-(7)------------|-(7)------------|-(7)------------|-----------------|
B|-----10-9-7-9-10|-----10-9-7-9-10|-----10-9-7-9-10|-----------------|
G|----------------|----------------|----------------|--------%--------|
D|----------------|----------------|----------------|-----------------|
A|----------------|----------------|----------------|-----------------|
E|----------------|----------------|----------------|-----------------|

*Guitarra 2:
E|-------------|-------------|-------------|--------------------|----|
B|-------------|-------------|-------------|--------------------|----|
G|-------------|-------------|-------------|--------------------|-X2-|
D|------9-7-5--|------9-7-5--|------9-7-5--|--7----7----7----7--|----|
A|-(9)---------|-(9)---------|-(9)---------|-----9----9----9----|----|
E|-------------|-------------|-------------|--------------------|----|


Verso 2: (sobre riff 2) X2
*******


"En el cagadero no hay gato más triste

sin moda de callejón.
 fill 1
Si nike es la cultura
 fill 1
nike es tu cultura,
 fill 1
nike es la cultura, hoy..."


*Guitarra 1:             fill 1          fill 1
E|-(7)------------|-(7)------------|-(7)------------|-----------------|
B|-----10-9-7-9-10|-----10-9-7-9-10|-----10-9-7-9-10|-----------------|
G|----------------|----------------|----------------|--------%--------|
D|----------------|----------------|----------------|-----------------|
A|----------------|----------------|----------------|-----------------|
E|----------------|----------------|----------------|-----------------|

*Guitarra 2:
E|----------------|----------------|----------------|-----------------|--|
B|----------------|----------------|----------------|-----------------|--|
G|----------------|----------------|----------------|-----------------|X2|
D|--(9)--9--7-5---|-------9--7-5---|-------9--7-5---|--7---7---7---7--|--|
A|----------------|--(9)-----------|--(9)-----------|----9---9---9----|--|
E|----------------|----------------|----------------|-----------------|--|


Verso 3: (sobre riff 1) X2
*******

             fill 2
"Almacenes coloridos a los que llamás ciudad
fill 1                       fill 1        fill 1
te envuelven con canciones indoloras como hilo musical."


*Guitarra 1:
    fill 2        fill 1             fill 1            fill 1
E|---------|-(7)-------------|-(7)-------------|-(7)-------------|
B|---------|-----10-9-7-9-10-|-----10-9-7-9-10-|-----10-9-7-9-10-|
G|--(9b)~--|-----------------|-----------------|-----------------|
D|---------|-----------------|-----------------|-----------------|
A|---------|-----------------|-----------------|-----------------|
E|---------|-----------------|-----------------|-----------------|

*Guitarra 2:
E|-------------|-------------|-------------|--------------------|--|
B|-------------|-------------|-------------|--------------------|--|
G|-------------|-------------|-------------|--------------------|X2|
D|------9-7-5--|------9-7-5--|------9-7-5--|--7----7----7----7--|--|
A|-(9)---------|-(9)---------|-(9)---------|-----9----9----9----|--|
E|-------------|-------------|-------------|--------------------|--|


Verso 4: (sobre riff 2) X2
*******


"Que el pasado acabe

y a su fin que llegue

plantando la jeta, hoy
 fill 1
si nike es la cultura
 fill 1                   fill 1
nike es tu cultura, hoy"


*Guitarra 1:              fill 1             fill 1
E|-(7)-------------|-(7)-------------|-(7)-------------|
B|-----10-9-7-9-10-|-----10-9-7-9-10-|-----10-9-7-9-10-|
G|-----------------|-----------------|-----------------|
D|-----------------|-----------------|-----------------|
A|-----------------|-----------------|-----------------|
E|-----------------|-----------------|-----------------|

*Guitarra 2:
E|----------------|----------------|----------------|-----------------|--|
B|----------------|----------------|----------------|-----------------|--|
G|----------------|----------------|----------------|-----------------|X2|
D|--(9)--9--7-5---|-------9--7-5---|-------9--7-5---|--7---7---7---7--|--|
A|----------------|--(9)-----------|--(9)-----------|----9---9---9----|--|
E|----------------|----------------|----------------|-----------------|--|


Estribillo 1: [base en Si]
************

"Mientras michael se retira, en la cadena ESPN

hay papiamentos casteyankis y caló pachuco irreal"


*Guitarra 1:
E|---------------|---------------|---------------|---------------|--|
B|---------------|---------------|---------------|---------------|--|
G|----------9b~--|----------9b~--|----------9b~--|----------9b~--|X2|
D|---------------|---------------|---------------|---------------|--|
A|---------------|---------------|---------------|---------------|--|
E|---------------|---------------|---------------|---------------|--|

*Guitarra 2:             Si              Si              Si
E|---------------|---------------|---------------|---------------|--|
B|---------------|---------------|---------------|---------------|--|
G|---------------|---------------|---------------|---------------|X2|
D|-9--9-9--9-(9)-|-9--9-9--9-(9)-|-9--9-9--9-(9)-|-9--9-9--9-(9)-|--|
A|-9--9-9--9-(9)-|-9--9-9--9-(9)-|-9--9-9--9-(9)-|-9--9-9--9-(9)-|--|
E|-7--7-7--7-(7)-|-7--7-7--7-(7)-|-7--7-7--7-(7)-|-7--7-7--7-(7)-|--|


Intermedio:
**********

*Guitarra 1:
E|-----------------|----------------|---------------|-----------|----|
B|-----------------|----------------|---------------|-----------|----|
G|-10b--10b--(10b)-|--9b--9b--(9b)--|--7b--7b--(7b)-|--5~-------|-X4-|
D|-----------------|----------------|---------------|------(4)~-|----|
A|-----------------|----------------|---------------|-----------|----|
E|-----------------|----------------|---------------|-----------|----|

**"Despues de la segunda vuelta entra el solo de Saxo"**


Estribillo 2:  (igual que el Estribillo 1)
************

"Jovencitos peligrosos

(los papis no dan más, no bancan)

carroñeros que te rajan de la careta de MTV latina"


Verso 5:
*******

"Operarios con salarios de miseria.

Dirás...qué me importa eso?
 fill 3
tengo trece o quince años...
 fill 3
los jordan`s son para mí!


*Guitarra 1:     fill 3
E|-17br---17br--17br--17br-|
B|-------------------------|
G|-------------------------|
D|-------------------------|
A|-------------------------|
E|-------------------------|

*Guitarra 2:
E|-----------------------|--------------------|----|
B|-----------------------|--------------------|----|
G|-----------------------|--------------------|-X3-|
D|-----------------------|--------------------|----|
A|-2-------------------2-|-2----------------2-|----|
E|-0--0-0-0-0-0-0-0-0--0-|-0--0-0-0-0-0-0-0-0-|----|
   PM . . . . . . . .         . . . . . . .


Verso 6: (igual que Verso 1)
*******

"Vos gritás -No logo!

o no gritás -No logo!

O gritás -No logo...no!

si nIke es la cultura

nike el la cultura, hoy...


Estribillo 3: (igual que el Estribillo 1)
************

"Es que el diablo está en el cielo...pero aparte (vos sabés eso)

Masturburguer da cupones y una ópera de hip hop.

Y nike es la cultura hoy"


Final:
*****

*Guitarra 1
E|-------------------------|-----------------------|-----------------
B|------------------------5|-----------------------|-12b-12b-12b-12b-
G|-777777777777777777-6p5--|-777777777777777777-6p5|-----------------
D|-------------------------|-----------------------|-----------------
A|-------------------------|-----------------------|-----------------
E|-------------------------|-----------------------|-----------------

E|---------------|------------------------------|-----------------|
B|-15b-15b-15b~--|--------------------7-10-(9)~-|-15b-15b-15b-15b-|
G|---------------|--------------6-7-9-----------|-----------------|
D|---------------|------7-7/(9)~----------------|-----------------|
A|---------------|-(9)~-------------------------|-----------------|
E|---------------|------------------------------|-----------------|

*Guitarra 2: [riff 1] X2

*/despues de esto las dos Guitarras hacen efectos con palanca/*


"Repite esto 3 veces"  [base con riff 2] X3
********************

"Nike es la cultura
                      *Guitarra 1: "Sigue con efectos de palanca"
nike es tu cultura

nike es la cultura hoy"


bueno cualquier duda mandenme un e-mail a ema_jiji@
o si quieren hablar tambien...bueno un saludo a todos.

            
            
Suggest correction
Creating personal tab
Creating personal tab
You can edit any tab online and save it as your Personal.

You can edit, replace or remove any tab part or add personal notes – all changes will be seen only by you.

Personal tabs can be accessed anytime from any device, even offline.
Learn more »
Give kudos to tab author, rate the tab!
1 2 3 4 5
comments
print report bad tab
guest
Wanna post a correction for this tab? Suggest correction