Oops, an error
Loading. Please wait.

Porco Rex tab

version 2
version 2

Whole song

61 views 1 this week
no commentswrite comment
1 2 3 4 5
3 more votes to show rating
add to favorites
×
Save as Personal and add changes to this tab that will be seen only by you. Learn more ›
×
You can save this tab as Personal to edit and correct it or add notes. All changes will be seen only by you. Learn more »
launch autoscroll
font size
0
reset
how to read this tab
guitar tuner
edit
Autoscroll
slow
fast
+/-
esc
set tempo
stop
Intro:

     Ab                  Eb
E |------------------|----------------------|
B |-7~-6-7-6---------|----8---9---8---9---8-|
G |----------8-6-8~--|--8---8---8---8---8---| x2
D |------------------|----------------------|
A |------------------|----------------------|
E |------------------|----------------------|

     C
E |-------------------------------------------------|
B |--------------------------------11/13-13--11-13~-|
G |-5~--5-7-9-10--9-7-5-3-5--3-5--------------------|
D |-------------------------------------------------|
A |-------------------------------------------------|
E |-------------------------------------------------|


Ab
Por esta vez Porco Rex
Eb
se va a dejar llevar por su alma
Ab
Impresionante... se ve
Eb
como el fantasma feo de un bagre.
C
De carnada lo vamos a usar!

     Ab                          Eb
E |--------------------------|--------------------------|
B |---9-11-9-------9-11-9----|----------------7---------|
G |-8--------8---8--------8--|--6-8--6-8--6-8----8---5~-|
D |--------------------------|--------------------------|
A |--------------------------|--------------------------|
E |--------------------------|--------------------------|


Ab
Un precio muy alto pagó
Eb
(quiso resucitar a un muerto)
Ab
En lo profundo, aceptó,
Eb
las aguas ya no están serenas.
C
Hola! Escuchen! Hay alguien allí?


E |-------------------|
B |--------5----------|
G |----2-5---5-2---4~-|
D |--3-----------3----|
A |-------------------|
E |-------------------|

F
"Perdonen mi ocurrencia
C
son mis modales así...
F
Ya casi nunca atiendo
G
(disfruto mi enfermedad)
F
En manos de pavotes
C
todo el sueño quedó
F
Disfrutá de los placeres
G
que te quedan sin dañar...
C
Dale! Dale! Dale!


     Ab                          Eb
E |--------------------------|--------------------------|
B |---9-11-9-------9-11-9----|----------------7---------|
G |-8--------8---8--------8--|--6-8--6-8--6-8----8---5~-|
D |--------------------------|--------------------------|
A |--------------------------|--------------------------|
E |--------------------------|--------------------------|


Ab
Por esta vez Porco Rex
Eb
se va a dejar llevar por su alma
Ab
Pregunta por el menú
Eb
y va a cagar en las estrellas!
C
Crema y nata le van a quitar!


Solo:
     Ab                          Eb
E |-----------------|-------------------------------|
B |-11~-9-7---------|---7-9-9/11-----7-9-9/11-7-----|
G |---------8-6-8~--|-8------------8------------8---|
D |-----------------|-------------------------------|
A |-----------------|-------------------------------|
E |-----------------|-------------------------------|


     Ab                          Eb
E |-------------------------|-----------------|
B |-----------------7-9-11--|-14-16~--14-16~--|
G |-6-8-8-6-8-8-6-8---------|-----------------|
D |-------------------------|-----------------|
A |-------------------------|-----------------|
E |-------------------------|-----------------|


Y sigue...


Fin.

            
            
Suggest correction
Creating personal tab
Creating personal tab
You can edit any tab online and save it as your Personal.

You can edit, replace or remove any tab part or add personal notes – all changes will be seen only by you.

Personal tabs can be accessed anytime from any device, even offline.
Learn more »
Give kudos to tab author, rate the tab!
1 2 3 4 5
comments
print report bad tab
guest
Wanna post a correction for this tab? Suggest correction