Oops, an error
Loading. Please wait.

Submarino Soluble tab

version 1
version 1

Whole song

31 views 1 this week
no commentswrite comment
1 2 3 4 5
3 more votes to show rating
add to favorites
×
Save as Personal and add changes to this tab that will be seen only by you. Learn more ›
×
You can save this tab as Personal to edit and correct it or add notes. All changes will be seen only by you. Learn more »
launch autoscroll
font size
0
reset
how to read this tab
guitar tuner
edit
Autoscroll
slow
fast
+/-
esc
set tempo
stop
Intro:

[1]

  Bm -   Am -   F
e|-7--|-5--|-1-1-1-1-1-1--------------------|
B|-7--|-5--|-1-1-1-1-1-1--------------------|
G|-7--|-5--|-2-2-2-2-2-2--------------------|
D|-9--|-7--|-3-3-3-3-3-3--------------------|
A|-9--|-7--|-3-3-3-3-3-3--------------------|
E|-7--|-5--|-1-1-1-1-1-1--------------------|

   F -   Am -   Bm
e|-1--|-5--|-7-7-7-7-7-7--------------------|
B|-1--|-5--|-7-7-7-7-7-7--------------------|
G|-2--|-5--|-7-7-7-7-7-7--------------------|
D|-3--|-7--|-9-9-9-9-9-9--------------------|
A|-3--|-7--|-9-9-9-9-9-9--------------------|
E|-1--|-5--|-7-7-7-7-7-7--------------------|

        X2

[2]
     F                   G
e|------------------|-----------------|-----|
B|------------------|-----------------|-----|
G|------------------|-----------------|-----|
D|------5h3------3--|------5h3------5-|--X2-|
A|-5-5-------5-5----|-5-5-------5-5---|-----|
E|------------------|-----------------|-----|


[1]
No me obedece mas la nave donde estoy
me pregunto porque no me obedece mas
[2]
planetaria es mi fortuna
pero hundida en un océano

[1]
Abandonado aquí, en cibernube,
en la profundidad virtual de un negro mar
[2]
planetaria criatura
mi mirada nunca aprendió a llorar


[3]
     Dm            C             Em             Dm
e|----------|--|-----------|--|----------|--|------------|
B|----------|--|-----------|--|----------|--|------------|
G|----------|--|-----------|--|----------|--|------------|
D|-----3-3--|X2|------3-3--|X2|------5-5-|X2|-5-0-3-5-5--|
A|-5-5------|--|--3-3------|--|--7-7-----|--|------------|
E|----------|--|-----------|--|----------|--|------------|

X2

[3]
Lo que hay que sufrir en esta hojalata
yendo al muere quieto (aleluya! aleluya!)
pienso si estaría mas a gusto ahí fuera
miro las pantallas (aleluya! aleluya!)

[1]
Me hostigan mal desde el control
tantas consignas me hacen ver que solo estoy
[2]
planetaria es mi fortuna
pero hundida en un océano

[1]
Mi capsula neural ya no me hace efecto
y el joystick rojo no gobierna nada mas
[2]
no me obedece más la nave donde estoy
falta el aire, la luz parpadea

[3]
Lo que hay que sufrir en esta hojalata
yendo al muere quieto (aleluya! aleluya!)
pienso si estaría mas a gusto ahí fuera
miro las pantallas (aleluya! aleluya!)


Solo de guitarra sobre base de [3] con la escala de Dm

[1]
Control insiste en que es,
normal lo que ocurre
estar tan solo así puede hacer mal

[2]
Planetaria criatura
mi mirada nunca aprendió a llorar
[3]
me arrastro muy lentamente
sobre mi vientre (aleluya! aleluya!)
adivino mas que veo un campo soleado en mi


Solo de guitarra final sobre base de [3] en escala de Dm.


Un abrazo, cualquier cosa avisen que corrijo. Jeroopr.

            
            
Suggest correction
Creating personal tab
Creating personal tab
You can edit any tab online and save it as your Personal.

You can edit, replace or remove any tab part or add personal notes – all changes will be seen only by you.

Personal tabs can be accessed anytime from any device, even offline.
Learn more »
Give kudos to tab author, rate the tab!
1 2 3 4 5
comments
print report bad tab
guest
Wanna post a correction for this tab? Suggest correction