Oops, an error
Loading. Please wait.

Todos A Los Botes tab

version 1
version 1

Whole song

19 views 1 this week
no commentswrite comment
1 2 3 4 5
3 more votes to show rating
add to favorites
×
Save as Personal and add changes to this tab that will be seen only by you. Learn more ›
×
You can save this tab as Personal to edit and correct it or add notes. All changes will be seen only by you. Learn more »
launch autoscroll
font size
0
reset
how to read this tab
guitar tuner
edit
Autoscroll
slow
fast
+/-
esc
set tempo
stop
Intro:
 Em                       FA
1° guitarra:
|-------------------------------|------------------------------|
|-------------------------------|------------------------------|
|--99--9~~-------99--9~~--------|--1010-10~~---------1010-10~~-|
|--99--9~~-------99--9~~--------|--1010-10~~---------1010-10~~-|
|--77--7~~-------77--7~~--------|--8-8--8~~----------8-8--8~~--|
|-------------------------------|------------------------------|

2° guitarra:
|--------12x12x12------12x12x12-|-----------13x13x13x----------13x13x13x-|
|-------------------------------|----------------------------------------|
|-------------------------------|----------------------------------------|
|-------------------------------|----------------------------------------|
|-------------------------------|----------------------------------------|
|-------------------------------|----------------------------------------|


1° guitarra:
|-------------------------------|--------------------------------------|
|-------------------------------|--------------------------------------|
|-99--9~~------99--9~~----------|--1010-10~~---------1010-10~~---------|
|-99--9~~------99--9~~----------|--1010-10~~---------1010-10~~---------|
|-77--7~~------77--7~~----------|--8-8--8~~----------8-8--8~~--10-878~-|
|-------------------------------|--------------------------------------|


2° guitarra
                                   (muteado y con Wha-Wha)
|-------------------------------|--------------------------------------------|
|-------------------------------|--------------------------------------------|
|-------------------------------|-------9x10x12x10x-9x10x12x10x--12x10x9x10x-|
|-------------------------------|--------------------------------------------|
|-------------------------------|--------------------------------------------|
|------/12/12/12------/12/12/12-|--------------------------------------------|


parte 1: [Em - FA]

Em
Vamos, y no se empujen, ni pisoteen,
                         FA
que este temblor ya va a parar
¡No tengan miedo!

Em                         FA
|------------------------|----------------------------|
|------------------------|----------------------------|
|--99~~---99~~-9~~--9~~--|--1010-10~~------1010-10~~--|
|--99~~---99~~-9~~--9~~--|--1010-10~~------1010-10~~--|
|--77~~---77~~-7~~--7~~--|--8-8--8~~-------8-8--8~~---|
|------------------------|----------------------------|


parte 2:[Em - FA]
Em
Todos, pronto a los botes, y no se asusten,
               FA
¡Que la marea ayudará!
¡Les pido que recen!


1° guitarra:
|-----------------------------|----------------------------|
|-----------------------------|----------------------------|
|--99~~---99~~-9~~--9~~-------|--1010-10~~------1010-10~~--|
|--99~~---99~~-9~~--9~~-------|--1010-10~~------1010-10~~--|
|--77~~---77~~-7~~--7~~-------|--8-8--8~~-------8-8--8~~---|
|-----------------------------|----------------------------|

2° guitarra:
|-----------------------------|
|-----------------------------|
|-----------------------------|
|-----------------------------|
|-----------------------------|
|---/12/12/12------/12/12/12--|


Pre-solo:(tambien se usa como base del solo)

1° guitarra:
|-------------------------|
|-------------------------|
|--999--10-9-7-99---------|x2
|--999--10-9-7-99---------|
|--777--8--7-5-77---------|
|-------------------------|


2° guitarra:
|------------------------|
|------------------17~~--|
|------------------------|x2
|------------------------|
|------------------------|
|------------------------|


1° guitarra:

|-----------------------------|
|-----------------------------|
|--101010--12-109-1010--------|x2
|--101010--12-109-1010--------|
|--8-8-8---10-8-7-8-8---------|
|-----------------------------|


2° guitarra:
|----------------------------|
|----------------------------|
|----------------------10~~--|x2
|----------------------------|
|----------------------------|
|----------------------------|


Solo 1:

|--------------------------|-------------------------|
|--------------------------|-------------------------|
|----------7h97------------|---------7h97------------|
|----6h76------109--109----|----6h76------109--109~~-|
|--78------------------7~--|--78---------------------|
|--------------------------|-------------------------|


(Pedal Wha-Wha)
|------------------------------------------|
|--17~~~17h18-17~~----15~13~12~-10~/8~-----|
|-------------------------------------9~~~-|
|------------------------------------------|
|------------------------------------------|
|------------------------------------------|


parte 3:[Em - FA]
(igual a la parte 1)

Em
¿Quién mueve asi los hilos en los gobiernos?
                    FA
Locos de gran intensidad
                     [*]
Por las verdades que ocultan.

Em                         FA
|------------------------|----------------------------|
|------------------------|----------------------------|
|--99~~---99~~-9~~--9~~--|--1010-10~~------1010-10~~--|
|--99~~---99~~-9~~--9~~--|--1010-10~~------1010-10~~--|
|--77~~---77~~-7~~--7~~--|--8-8--8~~-------8-8--8~~---|
|------------------------|----------------------------|


2° guitarra:
 [*] :
|---------------------|
|---------------------|
|---------------------|
|---------------------|
|-7/8-8/10-10/12-12~--|
|---------------------|


Solo 2: base :[Em-FA]

|---------------------------------|
|--/17~~~~~--15~--1312------------|
|---------------------1412~--14~~-|
|---------------------------------|
|---------------------------------|
|---------------------------------|


|-------------------------------------------------------------------|
|-------------------------------------------------------------------|
|--1010-9h10/-12~10~~~----1010-9h10--10/12-12/14-14/16--14h16-16~~~-|
|-------------------------------------------------------------------|
|-------------------------------------------------------------------|
|-------------------------------------------------------------------|


parte 4:
[*]
Todas nuestras historias ya son sufrientes se enturbian
          FA
y quedan atrás, nos quieren pacientes.


[*]:
|---------|
|---------|
|---------|repite varias veces
|---------|
|---------|
|--/12\---|


solo 3:

(pedal Wha-Wha)
|---------------------------------------|
|-17~~~17~~~17~~~--15~~1312-------------|
|--------------------------14-12-109-79-|
|---------------------------------------|
|---------------------------------------|
|---------------------------------------|


|---------------------------------------------------|
|------1415-17~~------1415-17~------1415-17~15-1312-|
|--1415-----------1415----------1415----------------|
|---------------------------------------------------|
|---------------------------------------------------|
|---------------------------------------------------|


(Wha-Wha apagado)
|-----------------------------------------------------|
|--17~~17h18-17~-15~~13--12/13-12/13-12/13-12/13-12---|
|--------------------------------------------------14-|
|-----------------------------------------------------|
|-----------------------------------------------------|
|-----------------------------------------------------|


|----------------------------
|--------------10-1213-1517~-
|-------7910-12--------------
|----679---------------------
|--78------------------------
|----------------------------


------------------------------------------------------|
-15-17h18p17h15p17h18p17h15p17h18p17h15p17h18p17-17~~-|
------------------------------------------------------|
------------------------------------------------------|
------------------------------------------------------|
------------------------------------------------------|


parte 5:[Em-FA]
Em
Todos esos colosos, son tan golosos
                       FA
que nos sentencian a flotar
En venenos siniestros!


son las mismas notas, pero se tocan muteadas:
Em                 FA
|----------------|--------------------|
|----------------|--------------------|
|--9-9x9x9x9-9---|--10-10x10x10x10-10-|
|--9-9x9x9x9-9---|--10-10x10x10x10-10-|
|--7-7x7x7x7-7---|--8--8x-8x-8x-8--8--|
|----------------|--------------------|


solo 4:

Base:

|---------------|------|---------------|------|
|---------------|------|---------------|------|
|----454--------|-[x2]-|----454--------|-[x2]-|
|--2-454-2-2x2--|------|--3-454-3-3x3--|------|
|--2-232-2-2x2--|------|--3-232-3-3x3--|------|
|--0-----0-0x0--|------|--1-----1-1x1--|------|


(con Wha-Wha)
|-------------------------------------------------------------------|
|17br17br17b17b-15h1213h1215h1213h1215h1213h1215h1213h12--15br15br~-|
|-------------------------------------------------------------------|
|-------------------------------------------------------------------|
|-------------------------------------------------------------------|
|-------------------------------------------------------------------|


|---------------------------------------------------------|
|-17br17br--18b17h18-17b~~--151312-1312-------------------|
|--------------------------------------14121412-1412------|
|---------------------------------------------------1414~-|
|---------------------------------------------------------|
|---------------------------------------------------------|


|---------------------------------------------------------------|
|------12-------15b~~~12h13h1512h13h1512h13h15-15~15h171817-15~-|
|--1214--14~~---------------------------------------------------|
|14-------------------------------------------------------------|
|---------------------------------------------------------------|
|---------------------------------------------------------------|


|----15-------------------------------------------------------------|
|1718--1817-18h17h1518h17h1518h17h15--13~12-----------12------------|
|----------------------------------------------------1412--1214--1412---12~~-|
|--------------------------------------------------------14-----------14-----|
|----------------------------------------------------------------------------|
|----------------------------------------------------------------------------|


|------------------------|
|----1213-15-171817-15~~-|
|--14--------------------|¡Todos a los botes!
|------------------------|
|------------------------|
|------------------------|


|-----------------------------------------------
|-12~12~-12h13h1512h13h1512h13h1512h13h15-1718~-
|-----------------------------------------------
|-----------------------------------------------
|-----------------------------------------------
|-----------------------------------------------

-----15------15-----15--------------|
17h18---17h18--17h18--17h18--17b15b-|
------------------------------------|
------------------------------------|
------------------------------------|
------------------------------------|


|-0-0-17b--17b17b17b17b-----15----15------------------------------|
|-0-0------------------1718--18----1817-15-13h15-13~12------------|
|------------------------------------------------------1412-12----|
|-------------------------------------------------------------14~-|
|-----------------------------------------------------------------|
|-----------------------------------------------------------------|


|------------------15-------------|
|----------------18--1817~-151312-|
|-----12--12~---------------------|
|-1214--14------------------------|
|---------------------------------|
|---------------------------------|


|-----------------------------------------------------------------|
|-----------------------------------------------------------------|
|1010-9h10/-12~10~~~----1010-9h10--10/12-12/14-14/16--14h16-16~~~-|
|-----------------------------------------------------------------|
|-----------------------------------------------------------------|
|-----------------------------------------------------------------|


parte 1
Vamos, y no se empujen, ni pisoteen,
que este temblor ya va a parar
¡No tengan miedo!

parte 2
Todos, pronto a los botes, y no se asusten,
¡Que la marea ayudará!
¡Les pido que recen!

-solo 1-

parte 3
¿Quién mueve asi los hilos en los gobiernos?
Locos de gran intensidad
Por las verdades que ocultan.

-solo 2-

parte 4
Todas nuestras historias ya son sufrientes se enturbian
y quedan atrás, nos quieren pacientes.


-solo 3-

parte 5
Todos esos colosos, son tan golosos
que nos sentencian a flotar
En venenos siniestros!

-solo 4-

¡Todos a los botes!


[El solo 4, esta bastante improvisado comparado con los demas,
 si tocan notas sobre la escala va a sonar bien igual]


pupi_pr@

            
            
Suggest correction
Creating personal tab
Creating personal tab
You can edit any tab online and save it as your Personal.

You can edit, replace or remove any tab part or add personal notes – all changes will be seen only by you.

Personal tabs can be accessed anytime from any device, even offline.
Learn more »
Give kudos to tab author, rate the tab!
1 2 3 4 5
comments
print report bad tab
guest
Wanna post a correction for this tab? Suggest correction