Oops, an error
Loading. Please wait.

Tomasito Podes Oirme, Tomasito Podes Verme tab

version 2
version 2

Whole song

22 views 1 this week
no commentswrite comment
1 2 3 4 5
3 more votes to show rating
add to favorites
×
Save as Personal and add changes to this tab that will be seen only by you. Learn more ›
×
You can save this tab as Personal to edit and correct it or add notes. All changes will be seen only by you. Learn more »
launch autoscroll
font size
0
reset
how to read this tab
guitar tuner
edit
Autoscroll
slow
fast
+/-
esc
set tempo
stop
Intro:

Riff 1

Riff1 y Riff2

Riff1
Hoy Tomasito y los Drum-Drum
tocan en el Medicine Room
(todo así, 'casi en inglés')
con Pussy-dancers Cock parade!

Riff3
y es el cielo en Etcheverry!

Riff1
Mañana van Los Pétalos
que son una turmita gay
y 'el monsieur' va a relojear
tanto que se van a flipar

Riff3
Va por Eros! Dale Eros!
Riff3
En el cielo de Etcheverry...

RIff1
La Chanchita que trabajó
Por un tiempo allá en París
Trajo ideas para su bar...
(se escucha mucho a los Who)

Riff3
Tomasito podés verme?!!


La vie gangsta allá en París
.. y Tomás fue piraña allí...

Riff3
Tomasito vas a oírme?!!

Riff1
Las pirañas vos creés
que no se comen nunca entre sí
Amor... sabés?
los sesenta fueron tres putos años nomás!

Riff3
y Etcheverry es tu cielo!


Riff1

                        F#m
E||------------------------------------------------------------|
B||-------------------------------------------------3-2--------|
G||------------------------------------------------------------|
D||------------------------------------------------------------|
A||-5-5--5~-----5-5--2~-----5-5---------5-5---5----------------|
E||-2-2---------2-2---------2-2--5~-----2-2---2----------------|


Riff2
                         F#m
E||--------------------------------------------------|---17-17-17-17-17-17-----------|
B||------------10~-----------------------------------|------------------------10-10--|
G||---11p9-11-------11-11p9---9-9--8-----------------|-------------------------------|
D||--------------------------------------------------|-------------------------------|
A||--------------------------------------------------|-------------------------------|
E||--------------------------------------------------|-14-14-14-14-14-14-------------|


Riff3
         D                       D
E||-------------------|---------------------------|
B||-------------------|---------------------------|
G||-------------------|-------------5~------------|
D||-------4-----7~----|-------4-------------------|
A||---/5-----5--------|---/5-----5----------------|
E||-------------------|---------------------------|


          SOLO

E||----5--2-2222--22222-----2---2------------------------------------------14~---|
A||-------------5---------5---5-------------------------------5------------------|
G||-------------------------------------6~-4p2----------2-4/6---6--4-2-----------|
D||---------------------------------------------4-----4-----------------4~-------|
A||------------------------------------------------------------------------------|
E||------------------------------------------------------------------------------|


           SOLO DEL FINAL

E||------------------------------------------------------------------------------|
A||--2----2-5---2-4---5----2----2-5---2-4---5------------------------------------|
G||------------------------------------------------------------------------------|
D||------------------------------------------------------------------------------|
A||------------------------------------------------------------------------------|
E||------------------------------------------------------------------------------|


E||------------------------------------------------------------------------------|
B||------------10-------------------------10--12--10~----------------------------|
G||----11p9-11----11-11p9-9-8----11p9-11-----------------------------------------|
D||-------------------------------------------------------------------2-2-2-2----|
A||------------------------------------------------------------------------------|
E||------------------------------------------------------------------------------|


E||---14~--14---12~---------------------------------2------------2--------------|
B||--------14---14~----10----10---------------2--5--------2--5------------------|
G||-----------------------11----11----------------------------------------------|
D||-----------------------------------------------------------------------------|
A||-----------------------------------------------------------------------------|
E||-----------------------------------------------------------------------------|

F#5

Espero q les guste

Aguante el rock nacional,
Aguante el Indio Solari, aguante los piojos, aguante la bersuit,
aguante los redondos, aguante alto alberdi, aguante la B


Facundo Cognigni

            
            
Suggest correction
Creating personal tab
Creating personal tab
You can edit any tab online and save it as your Personal.

You can edit, replace or remove any tab part or add personal notes – all changes will be seen only by you.

Personal tabs can be accessed anytime from any device, even offline.
Learn more »
Give kudos to tab author, rate the tab!
1 2 3 4 5
comments
print report bad tab
guest
Wanna post a correction for this tab? Suggest correction