Oops, an error
Loading. Please wait.

Too Beef Or Not To Beef tab

version 1
version 1

Whole song

43 views 1 this week
no commentswrite comment
1 2 3 4 5
3 more votes to show rating
add to favorites
×
Save as Personal and add changes to this tab that will be seen only by you. Learn more ›
×
You can save this tab as Personal to edit and correct it or add notes. All changes will be seen only by you. Learn more »
launch autoscroll
font size
0
reset
how to read this tab
guitar tuner
edit
Autoscroll
slow
fast
+/-
esc
set tempo
stop
  Too Beef Or Not To Beef

INTRO:  C  Dm  F  C

   RIFF 1
E|--------------------|
B|-6-5---6/8--8/10\8--|
G|-----5--------------|  X3
D|--------------------|
A|--------------------|
E|--------------------|

   RIFF 2                     RIFF 2*
E|--------------------|     E|----------|
B|----5----------8----|     B|-----8----|
G|-7----5----5-----5~-|     C|-5-----5--|
D|-------------7------|     D|---7------|
A|--------------------|     A|----------|
E|--------------------|     E|----------|


  VERSOS


     C                  (RIFF 1)
To beef or not to beff!
              Dm      (RIFF 2)
Mi vida aqui no daba más
           F           C        (RIFF 2*)
Me fui en un trip to Gringolandia


  C                        (RIFF 1)
A San la Mierda yo recé y raje
  Dm       F              C             (RIFF 2 + RIFF 2*)
me fui llenar de frititos mi estoraje


E|----------------|
B|--8~~~----------| (dejar sonar)
G|----------------|
D|----------------|
A|----------------|
E|----------------|

 F
Allá fui por mi grincar
                 C
me fui dejando todo pending... mi beibi
 F                                  C
El aire acondicionado iba a rajar, al fin, mi raja de assman forrandose


E|---------------------------|
B|---------------------------|
G|---------------------------|
D|-(5)-(7)-(5)-------5/7\5---|       NOTA:    Lo que esta entre parentecis, hay que tocarlo muy despacito.
A|---------------------------|
E|---------------------------|

 F                   C
Coyotes de Laredo ¡comemierdas!


SOLO:     C  Dm  F  C


E|------------|-------------0--|---------------|------------------------|-------------|---------------------------|
B|------------|----------------|-------6-5-----|------------------------|-------------|---------------------------|
G|------0h2h0-|----------------|------------7--|-----5--7---7/9-7/9--7--|--7-5--------|--2-2---4-4--5-5--7-7--(7)-|
D|--0h2-------|----------------|--5/7----------|---7--------------------|------7-5----|--3-3---5-5--5-5--7-7--(7)-|
A|------------|--(3)-3---3-----|---------------|------------------------|----------8--|---------------------------|
E|------------|----------------|---------------|------------------------|-------------|---------------------------|


 C                   (RIFF 1)
Calor feroz brujerías...

Con la vieja Haydé me fui a cruzar
 Dm               F                       C      (RIFF 2 + RIFF 2*)
con fiebre y con miedo tambien, el Rio Bravo


E|------------|
B|------------|
G|--(2)/(17)--|    NOTA:  Casi ni se escucha.. pero es con slide
D|------------|
A|------------|
E|------------|

  C                        (RIFF 1)
Narcocorridos de Ciuidad Juarez
 Dm         F               C           (RIFF 2 + RIFF 2*)
Tonto de mi, que alli silbé La Cucaracha


  F                                    C
¡For the price of a muffin yugué a lo Cheyenne, man!

¡Tal cual!
  F                              C
Y por todo el puto ruido, ése del futuro allí también
  F                                        C
(¡Leen el Evangelio según Hitler a la hora de almorzar!)
  F                        C       (RIFF 2* + RIFF1)
¡Y yo allí! Pensando en vos siempre...

Pensando en vos siempre...

Pensando en vos siempre...

E|-------------------|-------------------|-------------|------------|
B|--13---------------|--13---------------|--6-5-----8--|--6-5----8--|
G|-----12--10--(9)\--|-----12--10--(9)---|------5------|------5-----|
D|-------------------|-------------------|-------------|------------|     NOTA:    REPITE    (FADE OUT)
A|-------------------|-------------------|-------------|------------|
E|-------------------|-------------------|-------------|------------|

Siempre extrañandote...


  FIN


 Cualquier duda manden un mail a vamos-las-bandas@

            
            
Suggest correction
Creating personal tab
Creating personal tab
You can edit any tab online and save it as your Personal.

You can edit, replace or remove any tab part or add personal notes – all changes will be seen only by you.

Personal tabs can be accessed anytime from any device, even offline.
Learn more »
Give kudos to tab author, rate the tab!
1 2 3 4 5
comments
print report bad tab
guest
Wanna post a correction for this tab? Suggest correction