Oops, an error
Loading. Please wait.

6 Am Bass Tab

31 views 1 this week
no commentswrite comment
1 2 3 4 5
3 more votes to show rating
add to favorites
launch autoscroll
font size
0
reset
guitar tuner
Autoscroll
slow
fast
+/-
esc
set tempo
stop
Help us to improve Ultimate-Guitar.com Take our survey!
×
A los 00:07 segundos empiesa a hacer eso


En:                             'Do'

-----------------------------------------------------------------
----2--3----5--------2--3----5---------2--3----5-------2--3----5-
--3----------------3-----------------3---------------3-----------
-----------------------------------------------------------------

En:           'Fa'                            'Do'

-----2--3----5-------2--3-----5------------------------------------
---3---------------3--------------------2--3----5------2--3-----5--
--------------------------------------3--------------3-------------
-------------------------------------------------------------------


En:    'Sol'          'Fa'                  'Do'

-----4--5----7-------2--3-----5------------------------------
---5---------------3---------------------2--3--4--5--4--5----
---------------------------------------3---------------------
-------------------------------------------------------------


Es asi todo el tema
Aguante gardeles papa!
Caride
Suggest correction
Give kudos to tab author, rate the tab!
1 2 3 4 5
comments
print report bad tab
guest
You may want to rate the tab now too:
select rating
Wanna post a correction for this tab? Suggest correction