Oops, an error
Loading. Please wait.
23 views 1 this week
no commentswrite comment
1 2 3 4 5
3 more votes to show rating
add to favorites
launch autoscroll
font size
0
reset
how to read this tab
guitar tuner
Autoscroll
slow
fast
+/-
esc
set tempo
stop
  TOCAR SIN MIEDO :P
   F#              E            B
e|----------------------------------------------------------
B|----------------------------------------------------------
G|----------------------------------------------------------
D|-11--13--11--13--9--11--9--11-----------------------------
A|-9---9---9---9---7--7---7--7--9--11--9--11--9--11--9--11--
E|------------------------------7--7---7--7---7--7---7--7---

?Son las 6 de la...                                 ...pero yo no...?
G|------------------------------------------------------------
D|------------------------------------------------------------
A|-9--9-11-9-12-9-11-9--9-11-9-12-9-11-9---11-11-12-12-13-13--
E|-7--7-7--7-7--7-7--7--7-7--7-7--7-7--7---9--9--10-10-11-11--

?...tengo ganas        me quiero que dar aca?
G|-------------------------------------------
D|-9--9-11-9-12-9-11-9-----------------------
A|-7--7-7--7-7--7-7--7--9--9-11-9-12-9-11-9--
E|----------------------7--7-7--7-7--7-7--7--

?En esta tan...                          ...hoy no quiero trabajar?
G|-----------------------------------------------------------------------
D|-11---13---11---13---9---11---9---11--------------------11-11-11-11-11-
A|-9--9-9--9-9--9-9--9-7-7-7--7-7-7-7--7-9---11---9---11--9--9--9--9--9--
E|---------------------------------------7-7-7--7-7-7-7------------------

  REPITE LO MISMO HASTA EL SOLO

e|---7---7----7---7---7---7---7--10b--------------------
B|--7---7----7---7---7---7---7---10b--7-----------------
G|-9b--9b--9b---9b--9b--9b--9b----------9b---7---7--7---
D|--------------------------------------------9---9-----
A|------------------------------------------------------
E|------------------------------------------------------

e|---------------------------------------------
B|--9--7--------9--7---------------------------
G|--9--7--------9--7---------------------------
D|---------------------------------------------
A|-------9-8-7-------9-8-7-----------7b---7-9--
E|--------------------------9-7--7-9----9------

e|---5--10b---------------------------
B|--5---10b--7--------------7---------
G|-7b----------9b--7-9--9-7-9b-9-7----
D|---------------------------------9--
A|------------------------------------
E|------------------------------------

e|---7--7--7--7--7--10b--------10b--------10b---10b---10b---------
B|--7--7--7--7--7---10b-7------10b-7------10b-7-10b-7-10b-7-------
G|-9b-9b-9b-9b-9b---------9b-7-------9b-7-|-------------|---9b-7--
D|------------------------------------------VARIAS VECES----------
A|----------------------------------------------------------------
E|----------------------------------------------------------------

e|---7---7--7--7--7--7---7--7--------------
B|--7---7--7--7--7--7---7--7------7--------
G|-9b--9b-9b-9b-9b-9b-9b--9b-9-7--9b--7----
D|--------------------------------------9--
A|-----------------------------------------
E|-----------------------------------------

e|--------------------------------------------------
B|--/10-10-10-10-10-10-/10-10-10-10-10-10-----------
G|--/11-11-11-11-11-11-/11-11-11-11-11-11--9-7---7--
D|---------------------------------------------9----
A|--------------------------------------------------
E|--------------------------------------------------

e|---------------------
B|------7---7--7-------
G|----7-9b--9b-9b-7----
D|--9------------------
A|------------------9--
E|---------------------

?Son las 6...
G|------------------------------------
D|----------------9-------------------
A|-9--------------7------------9------
E|-7---------------------------7------

AL FINAL TERMINA CON ESTE RIFF

e|------------------------7------
B|-------------7----------7------
G|-------------7----------8------
D|-------7--9------7--9---9------
A|-7-8-9---------9--------9------
E|------------------------7------

AGUANTE? LOS GARDELES!!!
TEMAZO Y MUY FACIL!!!!!!
Suggest correction
Give kudos to tab author, rate the tab!
1 2 3 4 5
comments
print report bad tab
guest
You may want to rate the tab now too:
select rating
Wanna post a correction for this tab? Suggest correction