Oops, an error
Loading. Please wait.

A Pesar Del Viento Tab

version 1
version 1

Whole song

47 views 1 this week
no commentswrite comment
1 2 3 4 5
3 more votes to show rating
add to favorites
launch autoscroll
font size
0
reset
how to read this tab
guitar tuner
×
Best way to learn
"A Pesar Del Viento"
Autoscroll
slow
fast
+/-
esc
set tempo
stop
Intro: A5 

1|-13-12-13-----13-12-10---12-10-8----8---8-8-10-10/12/10---------8-------------|X2
2|---------------------------------10----------------------8-8-10--10-8-10------|
3|------------------------------------------------------------------------------|
4|------------------------------------------------------------------------------|
5|------------------------------------------------------------------------------|
6|------------------------------------------------------------------------------|


Dm
Estoy pensando en vos nena
                    C
estoy pensando en vos 
                    A
estoy pensando en vos 
Dm
el tiempo me lastima 
                   C
el tiempo me hace mal 
                     A
porque me lleva tu vos 


Dm
Las cosas que pasamos 
              C
no moriran jamas 
                     A
aun siguen vivas en mi
Dm
Pero a pesar del viento 
                  C
no puedo comprender 
                   A
porque te alejas asi


Dm-C-A (Arpegiado)asi

  Dm                            C        A
1|---1-----1-----1------1-----1-----0--------0------|
2|-3-----3---3-3------3---3-3-----1---1----2---2----|
3|-----2------------2-----------0--------2-------2--|
4|--------------------------------------------------|
5|--------------------------------------------------|
6|--------------------------------------------------|


1|-13-12-13-----13-12-10---12-10-8----8---8-8-10-10/12/10---------8-------------|
2|---------------------------------10----------------------8-8-10--10-8-10------|
3|------------------------------------------------------------------------------|
4|------------------------------------------------------------------------------|
5|------------------------------------------------------------------------------|
6|------------------------------------------------------------------------------|


1|-13-12-13-----15/17/15--13-12----12-10-8----8---8-8-10-10/12/10---------8-------------|
2|-----------------------------------------10----------------------8-8-10--10-8-10------|
3|--------------------------------------------------------------------------------------|
4|--------------------------------------------------------------------------------------|
5|--------------------------------------------------------------------------------------|
6|--------------------------------------------------------------------------------------|


Dm
Estoy pensando en vos nena
                          C
estoy pensando en quien sino 
                    A
estoy pensando en vos 
Dm
el tiempo me lastima 
                   C
el tiempo me hace mal 
                     A
porque me lleva tu vos 


Dm
Las cosas que pasamos 
              C
no moriran jamas 
                     A
aun siguen vivas en mi
Dm
Pero a pesar del viento 
                  C
no puedo comprender 
                   A
porque te alejas asi


Dm-C-A 

 Dm                            C        A
1|---1-----1-----1------1-----1-----0--------0------|
2|-3-----3---3-3------3---3-3-----1---1----2---2----|
3|-----2------------2-----------0--------2-------2--|
4|--------------------------------------------------|
5|--------------------------------------------------|
6|--------------------------------------------------|

2° solo de Guitarra y despues.....


 Dm                            C        A
1|---1-----1-----1------1-----1-----0--------0------|
2|-3-----3---3-3------3---3-3-----1---1----2---2----|
3|-----2------------2-----------0--------2-------2--|
4|--------------------------------------------------|
5|--------------------------------------------------|
6|--------------------------------------------------|


    Dm             
1|----5-5-----5-5--| x3 
2|----6-6-----6-6--|
3|----7-7-----7-7--|
4|-----------------|
5|--5--------------|
6|----------5------|

Termina en Dm

1|-----5--5-------4h5----|
2|-----6----6------------|
3|-----7------7----------|
4|-----7-----------------|
5|-----5-----------------|
6|-----------------------|

Fin......

Bueno..Temazo de Los Gardelitos espero que les sirva!! Saludos a todos mis amigos de Rio Grande
Tierra del Fuego desde Rosario!! Si tenes alguna correccion mandala a mi mail.....
Saludos para Rodrigo.T, Gaston (la Plata)Karina.C,Nico.R,Emma.E,Franco.T,Laura.A.
Gardelitos por favor Vuelvan a Rosario!!
Suggest correction
Give kudos to tab author, rate the tab!
1 2 3 4 5
comments
print report bad tab
guest
You may want to rate the tab now too:
select rating
Wanna post a correction for this tab? Suggest correction