Oops, an error
Loading. Please wait.

A Pesar Del Viento Tab

version 2
version 2

Whole song

29 views 1 this week
no commentswrite comment
1 2 3 4 5
3 more votes to show rating
add to favorites
launch autoscroll
font size
0
reset
how to read this tab
guitar tuner
×
Best way to learn
"A Pesar Del Viento"
Autoscroll
slow
fast
+/-
esc
set tempo
stop
Intro: A5

1|-13-12-13-----13-12-10---12h10------------------10-12-10------------|
2|-------------------------------13-10-13--13-13----------------10h11-|
3|---------------------------------------------------------9/12-------|
4|--------------------------------------------------------------------|
5|--------------------------------------------------------------------|
6|--------------------------------------------------------------------|

1|---------------|
2|--8-10---------|
3|---------------|
4|---------------|
5|---------------|
6|---------------|


   Dm                           ***************        ***************
Estoy pensando en vos nena      *      A#     *        *      Dm     *
   A#                           *   1|--1--|  *        *   1|--1--|  *
estoy pensando en vos           *   2|--3--|  *        *   2|--3--|  *
          C        Am           *   3|--3--|  *        *   3|--2--|  *
estoy pensando en vos           *   4|--3--|  *        *   4|--0--|  *
   Dm                           *   5|--1--|  *        *   5|-----|  *
el tiempo me lastima            *   6|--1--|  *        *   6|-----|  *
   A#                           *             *        *             *
el tiempo me hace mal           ***************        ***************
            C       Am
porque me lleva tu vos
                                ***************        ***************
                                *      Am     *        *      C      *
                                *   1|--0--|  *        *   1|--0--|  *
     Dm                         *   2|--1--|  *        *   2|--1--|  *
Las cosas que pasamos           *   3|--2--|  *        *   3|--0--|  *
    A#                          *   4|--2--|  *        *   4|--2--|  *
no moriran jamas                *   5|--0--|  *        *   5|--3--|  *
            C        Am         *   6|-----|  *        *   6|-----|  *
aun siguen vivas en mi          *             *        *             *
  Dm                            ***************        ***************
Pero a pesar del viento
    A#
no puedo comprender
            C      Am
porque te alejas asi


Aca viene el ARPEGIADO es dificil pero LO SAQUE!!!
tien que arpegiar las notas para que quede mas piola

 F-Gm-Dm-C-

y despues..

     Dm      *     *       *        E        F       Am
1|----1--|---1--|---1--|----0--|----0---|-----1--|-------|
2|-----3-|----3-|----3-|-----3-|-----0--|------1-|----1--|
3|-------|------|------|-------|--------|--------|----2--|
4|--0----|------|------|-------|--------|--------|----2--|
5|-------|-3----|-2----|-1-----|--------|--------|-------|
6|-------|------|------|-------|--0-----|--1-----|-------|


******(PUNTEO)******

despues...

1|-13-12-13-----13-12-10---12h10------------------10-12-10------------|
2|-------------------------------13-10-13--13-13----------------10h11-|
3|---------------------------------------------------------9/12-------|
4|--------------------------------------------------------------------|
5|--------------------------------------------------------------------|
6|--------------------------------------------------------------------|

1|---------------|
2|--8-10---------|
3|---------------|
4|---------------|
5|---------------|
6|---------------|

1|-13-12-13-----17-15-13-10--12h10------------------10-12-10------------|
2|---------------------------------13-10-13--13-13----------------10h11-|
3|----------------------------------------------------------9/12--------|
4|----------------------------------------------------------------------|
5|----------------------------------------------------------------------|
6|----------------------------------------------------------------------|


  Dm
Estoy pensando en vos nena
  A#
estoy pensando en quien sino
          C        Am
estoy pensando en vos
     Dm
el tiempo me lastima
     A#
el tiempo me hace mal
            C       Am
porque me lleva tu vos


    Dm
Las cosas que pasamos
    A#
no moriran jamas
            C        Am
aun siguen vivas en mi
    Dm
Pero a pesar del viento
    A#
no puedo comprender
            C     Am
porque te alejas asi

F-Gm-Dm-C-

y despues..

     Dm      *     *       *        E        F       Am
1|----1--|---1--|---1--|----0--|----0---|-----1--|-------|
2|-----3-|----3-|----3-|-----3-|-----0--|------1-|----1--|
3|-------|------|------|-------|--------|--------|----2--|
4|--0----|------|------|-------|--------|--------|----2--|
5|-------|-3----|-2----|-1-----|--------|--------|-------|
6|-------|------|------|-------|--0-----|--1-----|-------|

*******(PUNTEO)********
*******(PUNTEO)********


    Dm
1|----5-5-----5-5--| x3
2|----6-6-----6-6--|
3|----7-7-----7-7--|
4|-----------------|
5|--5--------------|
6|----------5------|

TERMINA EN Dm

THE END..


Bueno un temaso de los gardeles creo que esta es la version
MAS PARECIDA al tema!!!!
bue.... un saludo para todos los pibes del LELOIR 2°3ra y
para toda la 12 de barrio SArmiento 
byeeeeeeeee!!!


             | _+80______________________________
              _+880_____________________________
              _++88____Los Gardelitos___________
              _++88_____________________________
              __+880_________________________++_
              __+888________________________+88_
              __++880______________________+88__
              __++888_____+++88__________+++8___
              __++8888__+++8880++88____+++88____
              __+++8888+++8880++8888__++888_____
              ___++888++8888+++888888++888______
              ___++88++8888++8888888++888_______
              ___++++++888888888888888888_______
              ____++++++88888888888888888_______
              ____++++++++000888888888888_______
              _____+++++++000088888888888_______
              ______+++++++00088888888888_______
              _______+++++++088888888888________
              _______+++++++088888888888________
              ________+++++++8888888888_________
              ________+++++++0088888888_________
              ________++++++0088888888__________
              _______+++++000888888888__________
00000000000
00000000000
00000000000
0000
0000
0000000    00008888
0000000    0000 8888  000088      00008   0000  0000  88    88888
0000       0000       0000 88     000088  0000  0000 88   88     88
0000       0000       0000  88    0000 88 0000  000088    88     88
0000       0000       000088888   0000  880000  0000 88   88     88
0000       0000       0000    88  0000   88000  0000  88    88888
Suggest correction
Give kudos to tab author, rate the tab!
1 2 3 4 5
comments
print report bad tab
guest
You may want to rate the tab now too:
select rating
Wanna post a correction for this tab? Suggest correction