Oops, an error
Loading. Please wait.

Amando A Mi Guitarra Bass

36 views 1 this week
no commentswrite comment
1 2 3 4 5
3 more votes to show rating
add to favorites
launch autoscroll
font size
0
reset
guitar tuner
×
Best way to learn
"Amando A Mi Guitarra"
Autoscroll
slow
fast
+/-
esc
set tempo
stop
INTRO
                          X3
G-----------|----------|----------|----------|---------|
D-----------|----------|----------|----------|-9-7-6---|
A----6--7--9|-6--4--6-x|----------|---6--7--9|-------9-|
E--7--------|----------|-9--7--6-x|-7--------|---------|

Dejare de mirarte dejare de pansar en vos...
                          X3
G-----------|----------|----------|----------|---------|
D-----------|----------|----------|----------|-9-7-6---|
A----6--7--9|-6--4--6-x|----------|---6--7--9|-------9-|
E--7--------|----------|-9--7--6-x|-7--------|---------|

                       Estribillo
 estoy amando demasiado a mi guitarra sus cuerdas me atan
 no me dejan pensar. maldita la hora que quiero tocar
 maldita la hora que quiero tocar..
G-----------|----------|----------|----------|----------|
D-----------|----------|----------|----------|----------|
A--9-9-9-9--|--9-8-7---|--7-7-7-7-|-7-6-7-8-9|----------|
E-----------|----------|----------|----------|----------|

    laralalala...larala..lalaaaa
                         X3
G-----------|----------|--------------|----------|---------|
D-----------|----------|-------2-1----|----------|---------|
A-----1-2-4-|----1-2-4-|--1-2-4---4-2-|----------|---------|
E---2-------|--2-------|-A------------|----------|---------|

                       Vuelve al pincipio
Suggest correction
Give kudos to tab author, rate the tab!
1 2 3 4 5
comments
print report bad tab
guest
You may want to rate the tab now too:
select rating
Wanna post a correction for this tab? Suggest correction