Oops, an error
Loading. Please wait.

Amando A Mi Guitarra Tab

version 1
version 1

Whole song

191 views 1 this week
no commentswrite comment
1 2 3 4 5
3 more votes to show rating
add to favorites
launch autoscroll
font size
0
reset
how to read this tab
guitar tuner
×
Best way to learn
"Amando A Mi Guitarra"
Autoscroll
slow
fast
+/-
esc
set tempo
stop
Intro: B D#m E B Bb B E B D#m E D# E F# E F# Bb

B            D#m    E B Bb B E
 Dejare de mirarte
 B         D#m           E B Bb B E
 dejare de pensar en vos
 B            D#m         E B Bb B E
 mi tiempo no da para mas
 B           D#m             E        B
 lo estoy perdiendo todo por ti... oooh

F#                               E
  Estoy amando demasiado a mi guitarra
F#                                E
  Sus cuerdas me atan mo ne dejan pensar
F#                               E
  Maldita la hora en que quiero tocar
F#                               E
  Maldita la hora en que quiero tocar
        F#         E            F#
  Laralalala laralalaralala laralalala

B              D#m    E B Bb B E
 Esto es una locura
 B           D#m                   E   B Bb B E
 ya estoy buscando escenario otra vez
 B         D#m                   Riff1
 mis dedos quieren tocar un blues
            D#m                     E
 ya estoy metido en este ritmo infernal
                  B
 y al final para que

F#                               E
  Estoy amando demasiado a mi guitarra
F#                                E
  Sus cuerdas me atan mo ne dejan pensar
F#                               E
  Maldita la hora en que quiero tocar
F#                               E
  Maldita la hora en que quiero tocar
        F#         E            F#           E              F#
  Laralalala laralalaralala laralalala laralalaralala laralala

E F# E Bb

solo:

e|-------------------------------------9---9/11-9-------------|
B|--------------7---7-7/9-7---9-12-9-12--12-------12-9---9-12-|
G|------------8---8---------11-------------------------11-----|
D|-9-9-11-9-11------------------------------------------------|
A|------------------------------------------------------------|
E|------------------------------------------------------------|

e|--------------------------------------------------------------------|
B|-------12-------------------------------7---------------------------|
G|-11/13---13-11-9/11-9-8--8-----6/8-6--8----6/8-6--6---6/8-6---------|
D|------------------------9--9--9-----9-----9-----9--9-------9-6--6-9-|
A|--------------------------------------------------------------9-----|
E|--------------------------------------------------------------------|

e|--------------|
B|--------------|
G|--------------|
D|--------------|
A|-9/11-9-------|
E|--------11-7--|

                D#m   E B Bb B E
 Esta es mi religion
 B          D#m                    E   B Bb B E
 no hay mas dios que el de tu corazon
  B                  D#m   E  B
 y aunque nadie la escuche
         D#m                 E
 yo solo quiero tocar mi cancion,
                   B
 tocarla hasta el fin

F#                               E
  Estoy amando demasiado a mi guitarra
F#                                E
  Sus cuerdas me atan mo ne dejan pensar
F#                               E
  Maldita la hora en que quiero tocar
F#                               E
  Maldita la hora en que quiero tocar
        F#         E            F#           E
  Laralalala laralalaralala laralalala laralalaralala

solo:

e|--------------------------------------------|
B|----------7-------------------7---7/9-7-----|
G|------6-8---9-8-9--8-6---6-6/8--8-------8---|
D|-9--9------------------9--------------------|
A|--------------------------------------------|
E|--------------------------------------------|

                 D#m         E B Bb B E
 Segun pasan los años señora
 B          D#m             E   B Bb B E
 y no le encuentro la solucion
 B            D#m             E   Riff2
 mi mente se cuelga en el rock
                  D#m                E
 y no tengo en la vida ninguna ambicion
                    B   Riff3
 mas que tocar esta noche.


F#                               E
  Estoy amando demasiado a mi guitarra
F#                                E
  Sus cuerdas me atan mo ne dejan pensar
F#                               E
  Maldita la hora en que quiero tocar
F#                               E
  Maldita la hora en que quiero tocar
        F#         E            F#           E
  Laralalala laralalaralala laralalala laralalaralala....


Riff1:

e|-------------4-7--7/11-7-9---7---|
B|---------4/7---------------9-----|
G|-----4-6-------------------------|
D|-4-6-----------------------------|
A|---------------------------------|
E|---------------------------------|


Riff2:

e|-5/7-7-5-7-7-5-7-7-5-7-7-5------------|
B|---------------------------7/8---9-8--|
G|-------------------------------9------|
D|--------------------------------------|
A|--------------------------------------|
E|--------------------------------------|

Riff3:

e|------------------------|
B|-------7----------------|
G|-7/8-9---9-8-6-------8--|
D|---------------9-6------|
A|-------------------9----|
E|------------------------|
Suggest correction
Give kudos to tab author, rate the tab!
1 2 3 4 5
comments
print report bad tab
guest
You may want to rate the tab now too:
select rating
Wanna post a correction for this tab? Suggest correction