Oops, an error
Loading. Please wait.

Amando A Mi Guitarra Tab

version 2
version 2

Whole song

44 views 6 this week
no commentswrite comment
1 2 3 4 5
3 more votes to show rating
add to favorites
launch autoscroll
font size
0
reset
how to read this tab
guitar tuner
×
Best way to learn
"Amando A Mi Guitarra"
Autoscroll
slow
fast
+/-
esc
set tempo
stop
Todos los B se hacen el el 7º traste *799877
Intro:  B D#m C#m B
|-7-6s7-9-11v-|
|-7-6s7-9-12v-|
|-------------|
|-------------|x4
|-------------|
|-------------|

Base de arpegios de las estrofas:
        B             D#m          C#m           B
|-------7------|-------6-----|-------4-----|-------7-----|
|-----7---7----|-----7---7---|-----5---5---|-----7---7---|
|---8-------8--|---8-------8-|---6-------6-|---8-------8-|
|-9------------|-8-----------|-6-----------|-9-----------|x4
|--------------|-------------|-------------|-------------|
|--------------|-------------|-------------|-------------|

Basee de arpegios y riff de el estribillo:
             F#                   E                   E
|-------2------------2-----|-------0------|  |---------------|
|-----2---2--------2---2---|-----0---0----|  |---------------|
|---3-------3----3-------3-|---1-------1--|  |-5h6-6-4-2h3---| x6
|-4------------4-----------|-2------------|  |-------------4-|
|--------------------------|--------------|  |---------------|
|--------------------------|--------------|  |---------------|

Solo 1:
Base del solo: B (Traste 7), D#m, C#m B (traste 7) x2
e|-------------------------------------9---9s11-9-------------|
B|--------------7---7-7s9-7---9-12-9-12--12-------12-9---9-12-|
G|------------8---8---------11-------------------------11-----|
D|-9-9-11-9-11------------------------------------------------|
A|------------------------------------------------------------|
E|------------------------------------------------------------|

e|--------------------------------------------------------------------|
B|-------12-------------------------------7---------------------------|
G|-11s13---13-11-9s11-9-8--8-----6s8-6--8----6s8-6--6---6s8-6---------|
D|------------------------9--9--9-----9-----9-----9--9-------9-6--6-9-|
A|--------------------------------------------------------------9-----|
E|--------------------------------------------------------------------|

e|--------------|
B|--------------|
G|--------------|
D|--------------|
A|-9s11-9-------|
E|--------11-7--|

Solo 2:
Base solo 2:  B (Traste 7), D#m, C#m B (traste 7)
e|--------------------------------------------|
B|----------7-------------------7---7s9-7-----|
G|------6-8---9-8-9--8-6---6-6s8--8-------8---|
D|-9--9------------------9--------------------|
A|--------------------------------------------|
E|--------------------------------------------|

Riff1: Mis dedos quieren tocar un blues...

e|-------------4-7--7/11-7-9---7---|
B|---------4/7---------------9-----|
G|-----4-6-------------------------|
D|-4-6-----------------------------|
A|---------------------------------|
E|---------------------------------|

       B                   D#m       C#m    B...
Riff2: Mi mente se cuelga del rock

e|-5/7-7-5-7-7-5-7-7-5-7-7-5------------|
B|---------------------------7/8---9-8--|
G|-------------------------------9------|
D|--------------------------------------|
A|--------------------------------------|
E|--------------------------------------|

Riff3: Mas que tocar esta noche...

e|------------------------|
B|-------7----------------|
G|-7/8-9---9-8-6-------8--|
D|---------------9-6------|
A|-------------------9----|
E|------------------------|
Suggest correction
Give kudos to tab author, rate the tab!
1 2 3 4 5
comments
print report bad tab
guest
You may want to rate the tab now too:
select rating
Wanna post a correction for this tab? Suggest correction