Oops, an error
Loading. Please wait.

Amor De Contramano Tab

198 views 3 this week
no commentswrite comment
1 2 3 4 5
2 more votes to show rating
add to favorites
launch autoscroll
font size
0
reset
how to read this tab
guitar tuner
×
Best way to learn
"Amor De Contramano"
Autoscroll
slow
fast
+/-
esc
set tempo
stop
Hola a pedido de muchos aca les dejo el solo de amor de contramano.
Esta perfecto. Cualquier duda o consulta e23g11t89@hotmail
No les dejo las notas porque las q estaban, estaban bien.
Edgar

e|-4-5-5/7-7-5-4-5-5/7--9--7-6-6/7--12-12-11-10-9--|
B|-5-7-7/9-9-7-5-7-7/9--10-9-8-8/9--14-14-12-11-10-|
G|-------------------------------------------------|
D|-------------------------------------------------|
A|-------------------------------------------------|
E|-------------------------------------------------|

e|9------9h11-9--9h11-9-7-6-6/7--12-9--6/7-12-9-6-12-9-6-6/7-12-9/6-6-6/7|
B|--10--------------------8-8/9--------8/9-------------8-8/9--------8-8/9|
G|-----11----------------------------------------------------------------|
D|-----------------------------------------------------------------------|
A|-----------------------------------------------------------------------|
E|-----------------------------------------------------------------------|

e|-4-4-5-5/7-7-7-5-4-5-5/7--9--7-6-6/7--12-12-16-15-14-14-----16-14--|
B|-5-5-7-7/9-9-9-7-5-7-7/9--10-9-8-8/9--14-14-16-15-14---14---14-14--|
G|--------------------------------------------16-15-14-----14--------|
D|-------------------------------------------------------------------|
A|-------------------------------------------------------------------|
E|-------------------------------------------------------------------|

e|16-14------------------------------------------------------------------|
B|14-14-17-14-12-12/14-17-17/---12---------------------------------------|
G|---------------------------11e---11br-9----9h11-9----------------------|
D|----------------------------------------11-------12-12-12-11-11h12-11-9|
A|-----------------------------------------------------------------------|
E|-----------------------------------------------------------------------|
                                             Aca va rapido!
e|----------------------------------------|-------------------|----------|
B|------------12---------------------12-9-|-------------------|----------|
G|------9-11e----11br-9---------9-11------|11-9---9-11-9-8---8|-8h9-8---8|
D|-9h11-----------------11--9h11----------|-----11---------11-|------11--|
A|----------------------------------------|-------------------|----------|
E|----------------------------------------|-------------------|----------|

e|-11-12-11-12-12/14-14-12-9-11/12--12--------12-14br-14-------12-12/-|
B|--------------------------------------12h14------------14-12--------|
G|--------------------------------------------------------------------|
D|--------------------------------------------------------------------|
A|--------------------------------------------------------------------|
E|--------------------------------------------------------------------|

e|-----------------------------------------------|
B|----12-----------------------------------------|
G|-11e---11br-9----9h11-9------------------------|
D|-------------11---------12-12-12-11-11h12-11-9-|
A|-----------------------------------------------|
E|-----------------------------------------------|

                                             Aca va rapido!
e|----------------------------------------|-------------------|----------|
B|------------12---------------------12-9-|-------------------|----------|
G|------9-11e----11br-9---------9-11------|11-9---9-11-9-8---8|-8h9-8---8|
D|-9h11-----------------11--9h11----------|-----11---------11-|------11--|
A|----------------------------------------|-------------------|----------|
E|----------------------------------------|-------------------|----------|

e|----------------------------------------------------------0------4--3-|
B|-/12-12-12-12-11-10----------------------------------9-----0----------|
G|-/13-13-13-13-12-11-9-11-11/13-11-11h13-11-9------9---9/1---1-1/4--3--|
D|---------------------------------------------11-9---------------------|
A|----------------------------------------------------------------------|
E|----------------------------------------------------------------------|

Korneta not dead!
Suggest correction
Give kudos to tab author, rate the tab!
1 2 3 4 5
comments
print report bad tab
guest
You may want to rate the tab now too:
select rating
Wanna post a correction for this tab? Suggest correction