Oops, an error
Loading. Please wait.

Blues Para Caseros Tab

78 views 1 this week
no commentswrite comment
1 2 3 4 5
3 more votes to show rating
add to favorites
launch autoscroll
font size
0
reset
how to read this tab
guitar tuner
Autoscroll
slow
fast
+/-
esc
set tempo
stop
Hola amigos aca les va el blues para caseros,

Cualquier duda o consulta e23g11t89@

NOTA:
e: estirar cuerda
br: estirar y bajar cuerda
...: no toca

Intro: A - F#m - E - A - E

e|-13e-13e-13-9--------------13e-13e-13-9------------------------|
B|--------------12--12-10-12--------------12-10--12br-10-------10|
G|-------------------------------------------------------11-11---|
D|---------------------------------------------------------------|
A|---------------------------------------------------------------|
E|---------------------------------------------------------------|

e|-----------------------------------------12--------------------|
B|-12br-10-------10-12e-10--------------12e---12-10---------10---|
G|---------11-11-----------11-9--9h11-9-------------11-9-11------|
D|---------------------------------------------------------------|
A|---------------------------------------------------------------|
E|---------------------------------------------------------------|

e|---------------------------|
B|-10------------------------|
G|----11-11-9--9-------------|
D|---------------11-11-9--9/-|
A|---------------------------|
E|---------------------------|

 A
Hoy maldigo a mi corazon
                F#m    riff 1
endurecido por el dolor
                     E riff 2
en tus ojos no puedo ver
                    A   riff 3
si es que sigues amandome

Es mucha reja para este amor riff 4
ya no puedo vivir asi    riff 1
esperando volverte a ver riff 2
esperando poder salir.   Riff 3

Si tu quieres voy a decir riff 5
o que tu no quieres decir riff 1
que has pensado dejarme aquí riff 2
que has pensado partir sin mi. Riff 6

          riff1                      riff2
e|------------------------|------------------------|
B|------------------------|---7-----8-----9------10|
G|------------------------|------------------------|
D|-11-12-12/14-14-13-12-11|-/7-7-7/8-8-8/9-9-9/10--|
A|------------------------|------------------------|
E|------------------------|------------------------|
      Riff 3
|---------------------------------|
|-10h12-10------------------------|
|----------9h11-9--9h11-9---------|
|-------------------------11-9-11-|
|---------------------------------|
|---------------------------------|
riff 4               riff5                riff6
e|----------------------|-13br-13e----------|---------------------|
B|-12e-12-12br-10----10-|----------14-12----|--10h12-10-----------|
G|----------------11----|----------------14-|----------...-9h11-9-|
D|----------------------|-------------------|---------------------|
A|----------------------|-------------------|---------------------|
E|----------------------|-------------------|---------------------|


D                             C#m        C#m Cm Bm
Y es que la fuerza de tu amor me sostiene
Bm                      A             E
y lo unico que tengo en la vida eres tu

Ay, si pudieras rescatarte a mi alma
y abrir tu cabeza para que veas cuanto te quiero.

solo A - F#m - E -- X 2
     D - C#m - A - E --X 2
     A

e|----------------------------------------------------------------|
B|-10-12e-12-10---------10/--12e-12-10------10-----------10-------|
G|--------------11-9-11----------------9h11----11-11--11----11-11-|
D|----------------------------------------------------------------|
A|----------------------------------------------------------------|
E|----------------------------------------------------------------|

e|-------------------------12------------------|
B|----10----------------12e---12-10---------10-|
G|-11---11-11-9--9h11-9-------------11-9-11----|
D|---------------------------------------------|
A|---------------------------------------------|
E|---------------------------------------------|

e|-------------12----------------------------14--14-----------17---17---17|
B|-10-12-10-12e---12-10---------10--12/141414--14--14-18br-18e--18e--18e--|
G|----------------------11-9-11-------------------------------------------|
D|------------------------------------------------------------------------|
A|------------------------------------------------------------------------|
E|------------------------------------------------------------------------|

e|----------------12-------------------------------------|
B|-18br--10-12-12e---12-10---------10--12e-10---------10-|
G|-------------------------11-9-11------------11-9-11----|
D|-------------------------------------------------------|
A|-------------------------------------------------------|
E|-------------------------------------------------------|

e|------------12------------------------------19-19e-17--19br-17------17-|
B|10----10-12e--12-10----10-18e-18e-18br--18e--------------------19-19---|
G|---11---------------11-------------------------------------------------|
D|-----------------------------------------------------------------------|
A|-----------------------------------------------------------------------|
E|-----------------------------------------------------------------------|

e|-17---------------------------------------|
B|----19-17h19-17--17-----------------------|
G|--------------------18-16h18-16-----16----|
D|---------------------------------19----19-|
A|------------------------------------------|
E|------------------------------------------|

e|--------------------12--------------------------------------|
B|-----10---10--10-12e--12-10----10-18e-17-17-18e-17-18e-17---|
G|-9h11-------11--------------11------------------------------|
D|------------------------------------------------------------|
A|------------------------------------------------------------|
E|------------------------------------------------------------|


e|--------19-19e-17--19br-17----17-19e-17-------------------------------|
B|-17-18e--------------------19-----------19-17h19-17-------------------|
G|----------------------------------------------------16h18-16-14h16-14-|
D|----------------------------------------------------------------------|
A|----------------------------------------------------------------------|
E|----------------------------------------------------------------------|

e|---------------12-------------------5-|
B|------10-12-12e----12br-10----10----5-|
G|-9h11----------------------11-------6-|
D|------------------------------------7-|
A|------------------------------------7-|
E|------------------------------------5-|


Era infaltable el tab del mejor tema de los Gardelitos.

Laaaa como costo!!!

Korneta Not Dead

Edgar.
Suggest correction
Give kudos to tab author, rate the tab!
1 2 3 4 5
comments
print report bad tab
guest
Wanna post a correction for this tab? Suggest correction