Oops, an error
Loading. Please wait.

Cobarde Para Amar Tab

version 1
version 1

Whole song

56 views 1 this week
no commentswrite comment
1 2 3 4 5
3 more votes to show rating
add to favorites
launch autoscroll
font size
0
reset
how to read this tab
guitar tuner
Autoscroll
slow
fast
+/-
esc
set tempo
stop
Help us to improve Ultimate-Guitar.com Take our survey!
×
Esta es una correccion de mi tema anterior estaba mal los acordes del estribillo pero ahora estan
bien! y suena copado! suerte y todos a Berazategui!

Intro G-Bm-C-D x3

Punteo

1|----10----8----8----8----7---5---5---3--3----3---3----3-3--5-3-5-7-5-5--| X2
2|-12----10---10---10----8---7---7---5----5--5---5---5--5-5--7-5-7-8-7-3--|
3|------------------------------------------------------------------------|
4|------------------------------------------------------------------------|
5|------------------------------------------------------------------------|
6|------------------------------------------------------------------------|


G                    Bm
Y entonces dime que puedo hacer por vos
 C                          D
que estas tan solo que no quieres ver el sol
G               Bm
a dejado el mundo de sentir
   C                       D
que dejas sola a la gente que te espera
G                   Bm
seguis buscando en vano en una razon
C                        D
pero te alejas de tu corazon


Am                 G
Eres un hombre tan simple como todos
Am                G
pero sumamente cobarde para amar
Am                 G
Eres un hombre tan simple como todos
Am                G
pero sumamente cobarde para amar


C           D          G
Lalalalalalala lalalalala
C           D          G
lalalalalalala lalalala
C           D          G
lalalalalalala lalalala
C           D          G
lalalalalalala lalalala

1|----------------------------------------------------------------------------------------------|
2|-3/5/3--0-1-3---3/5/3--1-0-1--0-1---3-1-0---3-1-0---3-1-0---3-1-0------------------0-3--------|
3|------------------------------------------2-------2-------2-------2--0-0-2--0-2-0------0-2/4--|
4|----------------------------------------------------------------------------------------------|
5|----------------------------------------------------------------------------------------------|
6|----------------------------------------------------------------------------------------------|

1|-------------------------------------|
2|---3-3h5p3---3-1-0---3-1-0-----------|
3|-5-------------------------2-0-------|
4|-------------------------------------|
5|-------------------------------------|
6|-------------------------------------|

G                    Bm
Cuando eras joven soñaste con viajar
 C                          D
el tiempo fue pasando y aun estas aca
G                    Bm
todos tus sueños los dejaste muy atras
 C                          D
todas las cosas que querias de verdad
G                    Bm
escucha amigo un dia partire
 C                          D
y estaras solo tan solo como ayer


Am                 G
Eres un hombre tan simple como todos
Am                 G
pero sumamente cobarde para amar
Am                 G
Eres un hombre tan simple como todos
Am                 G
pero sumamente cobarde para amar

C           D          G
Lalalalalalala lalalalala
C           D          G
lalalalalalala lalalala


G                    Bm
Y ella sigue esperando tu cancion
 C                          D
sentada en el pasillo mirando su relog
G                    Bm
y se que nunca te atreveraz a hablarle
 C                          D
tienes miedo de ser un tonto mas
G                    Bm
hay si puedieras romper ese cristal
 C                          D
tocar su cuerpo y amarla de verdad.


Am                 G
Eres un hombre tan simple como todos
Am                 G
pero sumamente cobarde para amar
Am                 G
Eres un hombre tan simple como todos
Am                 G
pero sumamente cobarde para amar

C           D          G
Lalalalalalala lalalalala
C           D          G
lalalalalalala lalalala
C           D          G
Lalalalalalala lalalalala
C           D          G
lalalalalalala lalalala
C          D
Lalalalalala
C          D
Lalalalalala
C           D          G
Lalalalalalala lalalalala

Fin...


Rosario es el Rocanroll
Suggest correction
Give kudos to tab author, rate the tab!
1 2 3 4 5
comments
print report bad tab
guest
You may want to rate the tab now too:
select rating
Wanna post a correction for this tab? Suggest correction