Oops, an error
Loading. Please wait.

Comandante Marcos Bass Tab

78 views 1 this week
no commentswrite comment
1 2 3 4 5
3 more votes to show rating
add to favorites
launch autoscroll
font size
0
reset
guitar tuner
×
Best way to learn
"Comandante Marcos"
Autoscroll
slow
fast
+/-
esc
set tempo
stop
comandante marcos

     bm                 g
g-----------------------------------------------
d-----------------------------------------------
a------------------7----10-10-10--12--10-9------
e---7-7-7----7--10------------------------------
    bm                  g
g-----------------------------------------------
d-----------------------------------------------
a------------------7----10-10-10--12--14-16-----
e---7-7-7----7--10------------------------------


bm                 g
g------------------------------------------------
d------------------------------------------------
a------------------7----10-10-10--12--10-9-------
e---7-7-7----7--10-------------------------------


 f#
g-----------------------------------------------
d-----------------------------------------------
a---9999--7---10--------------------------------
e-----------------7-----------------------------


marihuana
Suggest correction
Give kudos to tab author, rate the tab!
1 2 3 4 5
comments
print report bad tab
guest
You may want to rate the tab now too:
select rating
Wanna post a correction for this tab? Suggest correction