Oops, an error
Loading. Please wait.

Comandante Marcos Tab

53 views 1 this week
no commentswrite comment
1 2 3 4 5
3 more votes to show rating
add to favorites
launch autoscroll
font size
0
reset
how to read this tab
guitar tuner
×
Best way to learn
"Comandante Marcos"
Autoscroll
slow
fast
+/-
esc
set tempo
stop
Intro: Bm G

e|--------------------------------------------------------|
B|-----2-3-2-3-5-5/7-7777777------2-3-2---2---------------|
G|-2/4-----------------------2/4-4------4---444-3-3/4-44--|
D|--------------------------------------------------------|
A|--------------------------------------------------------|
E|--------------------------------------------------------|

e|-------------------------5-------------------------|
B|-----2-3-2-3-5-5/7-77777---8-7-8-7h8-7-777-5---5---|
G|-2/4-----------------------------------------7-----|
D|---------------------------------------------------|
A|---------------------------------------------------|
E|---------------------------------------------------|

e|-9/10-9-7-9-7--------5/7-777-5/7-77---10-9-7-9-7-----------------|
B|-------------10-10-7----------------------------10-7-7777-5/7-77-|
G|-----------------------------------------------------------------|
D|-----------------------------------------------------------------|
A|-----------------------------------------------------------------|
E|-----------------------------------------------------------------|

e|-10-9-7-9-7---------5/7-777-7/9-10-12-12-10-9-10-9-7-7/9-7-77--|
B|------------10-10-7--------------------------------------------|
G|---------------------------------------------------------------|
D|---------------------------------------------------------------|
A|---------------------------------------------------------------|
E|---------------------------------------------------------------|

e|-7-7-7------------|
B|-------10-10-7-7--|
G|------------------|
D|------------------|
A|------------------|
E|------------------|

   Bm                        G
El comandante marcos, en la selva mexicana
 Bm                     G
lucha por tu amor, pero vos no haces nada
 Bm                     G
sigues complicándote la vida con pavadas
    Bm                       G
comprando porquerias, que no sirven para nada
   Bm                    G
estas desesperado por entrar al primer mundo
   Bm                   G                      F#
pero tu corazon sigue siendo un vagabundo, vagabundo

    Bm     G
oh,oh,oh,oh,oh

    Riff1             Riff 2
e|-2h3-2-------||---------------|
B|------3------||---2h3-2---2---|
G|-------4-----||---------4---4-|
D|-------------||---------------|
A|-------------||---------------|
E|-------------||---------------|

    Bm                      G
Tu lengua se sepulta poco a poco en internet        Riff1
    Bm                       G
tu corazon se agrieta, ya no tienes que creer       Riff 2
   Bm                       G
el comandante marcos esta abriendo una ventana
   Bm                   G
para mirar el cielo de los desesperados
  Bm                     G
aquellos olvidados, que nunca tienen nada
       F#
ni siquiera una mirada...
    Bm
de amor.

   G      Bm       G
oh,oh,oh,oh,oh,oh

Solo: comienza al termino de "de amor" acompañado al principio
por los acordes Bm y G mientras dice oh,oh,oh,oh...

e|--------------------------------------------------------|
B|-----2-3-2-3-5-5/7-7777777------2-3-2---2---------------|
G|-2/4-----------------------2/4-4------4---444-3-3/4-44--|
D|--------------------------------------------------------|
A|--------------------------------------------------------|
E|--------------------------------------------------------|

e|-------------------------5-------------------------|
B|-----2-3-2-3-5-5/7-77777---8-7-8-7h8-7-777-5---5---|
G|-2/4-----------------------------------------7-----|
D|---------------------------------------------------|
A|---------------------------------------------------|
E|---------------------------------------------------|

e|-9/10-9-7-9-7--------5/7-777-5/7-77---10-9-7-9-7-----------------|
B|-------------10-10-7----------------------------10-7-7777-5/7-77-|
G|-----------------------------------------------------------------|
D|-----------------------------------------------------------------|
A|-----------------------------------------------------------------|
E|-----------------------------------------------------------------|

e|-10-9-7-9-7---------5/7-777-7/9-10-12-12-10-9-10-9-7-7/9-7-77--|
B|------------10-10-7--------------------------------------------|
G|---------------------------------------------------------------|
D|---------------------------------------------------------------|
A|---------------------------------------------------------------|
E|---------------------------------------------------------------|

e|-7-7-7-----------------------------------------------------------|
B|-------10-10-7-7--7-7-7-7h8-7-7-7h8-7-7-7h8-7-7-7h8-7-8-10-8-7-8-|
G|-----------------------------9-------9-------9-------------------|
D|-----------------------------------------------------------------|
A|-----------------------------------------------------------------|
E|-----------------------------------------------------------------|


e|------------------------------------------------------------|
B|-7h8-7-7----------------------------------------------------|
G|------9-9-7-9-7-6-7-6-4-4/6-6h7-6--6h7-6--6h7-6-6-----------|
D|---------------------------------9------9------9-9-9-9-7-9--|
A|------------------------------------------------------------|
E|------------------------------------------------------------|

e|--------------------------12/14-12----------------------------|
B|---------7-8-10-8-7-7-7-7----------15-14-14h15-14-12-14-12-12-|
G|---6-7-9------------------------------------------------------|
D|-9------------------------------------------------------------|
A|--------------------------------------------------------------|
E|--------------------------------------------------------------|

e|-----------------------------------------|--|
B|-12-14-15----------------------12-12-12--|--|
G|----------12-12-12-12h14-12-14-----------|x2|
D|-----------------------------------------|--|
A|-----------------------------------------|--|
E|-----------------------------------------|--|

e|----------15-15-15-14h15-14---------------------------------------------|
B|-12-14-15------------------15-12-12-12-12-14-15----------------------12-|
G|------------------------------------------------12-12-12-12/14-12-14----|
D|------------------------------------------------------------------------|
A|------------------------------------------------------------------------|
E|------------------------------------------------------------------------|


Bm                 G
nadie sabe que son las hormigas,
       Bm                   G
ni las madres locas, ni los niños solos
       Bm                G
ni los fusilados, ni los condenados
       Bm                G
ni los aburridos, ni los deprimidos
       Bm                    G
ni los indios sabios, ni los asesinos,
       Bm                    G
ni los narcos locos, los que somos pocos
        Bm                  G
los que ven el dia, los que ven el cielo
        Bm                G
los que miran todo lo que nadie ve
   Bm                 G
El fin del tiempo, la luz del dia
   Bm             G
el universo y las hojas mias
Bm     G    Bm     G
Tienen sed, sed de ser
Bm     G    Bm     G
Tienen sed, sed de ser

e|------------|--|--------------|
B|-6h7-6------|--|--------------|
G|-------7-6--|x5|-7-6-7-6-7-6--|
D|------------|--|--------------|
A|------------|--|--------------|
E|------------|--|--------------|

Nota: Este ultimo punteo que hace 7 6 7 6 7 6 se repite hasta
terminar el tema.
Suggest correction
Give kudos to tab author, rate the tab!
1 2 3 4 5
comments
print report bad tab
guest
You may want to rate the tab now too:
select rating
Wanna post a correction for this tab? Suggest correction