Oops, an error
Loading. Please wait.

Donde Las Lunas Despiertan Tab

version 1
version 1

Whole song

23 views 1 this week
no commentswrite comment
1 2 3 4 5
3 more votes to show rating
add to favorites
launch autoscroll
font size
0
reset
how to read this tab
guitar tuner
×
Best way to learn
"Donde Las Lunas Despiertan"
Autoscroll
slow
fast
+/-
esc
set tempo
stop
Bueno Gente Esta Es Mi 1er Transcripción En La Cuerda De Un Tema
Muy Koopadoo Del Nuevo Cd De Los Gardeles Loko Espero Ke Me Banken

Riff 1                            Riff 3
1|-----------------|                  1|-----------------|
2|-----------------|                  2|-----------------|
3|-----------------|                  3|-3e1-------------|
4|--1p3------------|                  4|-----3-0---------|
5|------2-0--------|                  5|-----------------|
6|-----------3-----|                  6|-----------------|


Riff 2
1|-----------------|
2|-----------------|
3|-----------------|
4|-0-1--3-2-0------|
5|----3------3-0---|
6|-----------------|


INTRO(Riff 1+G Riff 1+Em Riff 1+C Riff 1+G+Riff2)


 G                     Em
Ya se marcha el tren, a otro planeta,
 C                      G  Riff3
Donde las lunas despiertan
 G                     Em
Ya no quiero ver, lo negro del mundo,
 C                     G  Riff2
Prefiero dar vueltas al Sol,
 G                     Em
Hasta encontrar la luz que me alumbre,
 C                     G
La ruta que debo seguir..

 C                    G
Oh nena, el Sol quiero ser,
 C                    D
Oh nena, el Sol esta vez...


Quiero ver reír a mi cara de cuervo
Y con mis amigos estar..
Tengo que parar, me estoy asfixiando,
Quizás hoy no vaya a trabajar,
Toda la ciudad, se mata corriendo,
Yo sólo quiero descansar...

Oh nena, el Sol quiero ser,
Oh nena, el Sol esta vez...


FINAL:Intro(Riff 1+G Riff 1+Em Riff 1+C Riff4+G)

Riff4

1|-----------------|
2|-5e3-------------|
3|-----4-2---------|
4|---------5-------|
5|-----------------|
6|-----------------|

Bueno asi termina esta muy bueno el tema y esta entero espero q les
sirva un montonazo gracias aguante Los Gardeles Y Comodoro Jeje Kualkier
Duda me escriben  michael_riverplatense@

....Mi MeNtE Se KuElGa En El RoCk...SuDaKa....
Suggest correction
Give kudos to tab author, rate the tab!
1 2 3 4 5
comments
print report bad tab
guest
You may want to rate the tab now too:
select rating
Wanna post a correction for this tab? Suggest correction