Oops, an error
Loading. Please wait.

Donde Las Lunas Despiertan Tab

version 3
version 3

Whole song

23 views 1 this week
no commentswrite comment
1 2 3 4 5
3 more votes to show rating
add to favorites
launch autoscroll
font size
0
reset
how to read this tab
guitar tuner
Autoscroll
slow
fast
+/-
esc
set tempo
stop
HOLA SOY LUIS MARTIN DE TUCUMAN AQUI LES VA MI TRANSCRIPCION
DE ESTE TEMAZO LOS GARDELES

Riff 1                            Riff 2
1|-----------------|                  1|--------------------|
2|-----------------|                  2|--------------------|
3|-----------------|                  3|--------------------|
4|-------0---------|                  4|--------0-----------|
5|--0P2----2-0-----|                  5|---0P2-----2--0-----|
6|-------------3---|                  6|-----------------0--|


Riff 3
1|-----------------|
2|-----------------|Riff 3
3|-----------------|
4|-------0---------|
5|--0P2----2--0--3-|

Riff 4
6|---------------------|
3|---------------------|
4|------0-2-0----------|
5|--0p2--------2--0----|
6|---------------------|


   Riff 5

6|---------------------|
3|----2p3--2-0---------|
4|-------------0-------|
5|---------------------|
6|---------------------|


INTRO(Riff 1+G Riff 2+Em Riff 3+C Riff 1+G+Riff4)


 G                     Em
Ya se marcha el tren, a otro planeta,
 C                      G  Riff 5
Donde las lunas despiertan
 G                     Em
Ya no quiero ver, lo negro del mundo,
 C                     G  Riff 4
Prefiero dar vueltas al Sol,
 G                     Em
Hasta encontrar la luz que me alumbre,
 C                     G
La ruta que debo seguir..


el estribillo se lo hace arpegiando:

 C                    G
Oh nena, el Sol quiero ser,
 C                    D
Oh nena, el Sol esta vez...


Quiero ver reír a mi cara de cuervo
Y con mis amigos estar..
Tengo que parar, me estoy asfixiando,
Quizás hoy no vaya a trabajar,
Toda la ciudad, se mata corriendo,
Yo sólo quiero descansar...

Oh nena, el Sol quiero ser,
Oh nena, el Sol esta vez...


FINAL: Intro  hasta llegar a la parte del C y despues va esto:

Riff

1|--5--3------------3-|
2|--3--1---1-3-1----3-|
3|---------0-0-0----0-|
4|--------------------|
5|--------------------|
6|--------------------|

Todo este tema va dedicado a mi amiga del ciber espacio jeje Noelia
'las noches son largas cuando te vas de tu hogar'
cualquier duda a
gard_eli_korne@
Suggest correction
Give kudos to tab author, rate the tab!
1 2 3 4 5
comments
print report bad tab
guest
Wanna post a correction for this tab? Suggest correction