Oops, an error
Loading. Please wait.

El Reloj Tab

112 views 1 this week
no commentswrite comment
1 2 3 4 5
3 more votes to show rating
add to favorites
launch autoscroll
font size
0
reset
how to read this tab
guitar tuner
×
Best way to learn
"El Reloj"
Autoscroll
slow
fast
+/-
esc
set tempo
stop
MI 4º TRANSCRIPCION
EL RELOJ, TREMENDO TEMA CON TREMENDO SOLO!!!!!!!!!!!!!!!

e|-[..................PM....................]-|-
B|-[..............ARMONICOS.................]-|-
G|----[7]---[7]---[7]---[7]---[7]---[7]---[7]-|-
D|-[7]---[7]---[7]---[7]---[7]---[7]---[7]----|-
A|--------------------------------------------|-
E|--------------------------------------------|-

?El sol prendió la luna...?
e|----------------------------------------------------------|-
B|----------------------------------------------------------|-
G|----[7]---[7]---[7]---[7]---------------------------------|-
D|-[7]---[7]---[7]---[7]--------2----2--4h2-2------2--4--2--|-
A|------------------------------0-3b-0--0-0-0--3b--0--0--0--|-
E|----------------------------------------------------------|-

?Mi amor en la ventana...?
e|----------------------------------------------------------|-
B|----------------------------------------------------------|-
G|----------------------------------------------------------|-
D|------------------------------2----2--4h2-2------2--4--2--|-
A|------------------------------0-3b-0--0-0-0--3b--0--0--0--|-
E|----------------------------------------------------------|-

?Mi cuerpo resp...?
?Mis ojos miran...?
e|------------------------------------|-
B|------------------------------------|-
G|----------------------------------2-|-
D|--5--5--5--5--5--5--5--5-5--4--3--2-|-
A|--3--3--3--3--3--3--3--3-3--2--1--0-|-
E|----------------------------------0-|-

?Mi cuerpo resp...?
?Mis ojos miran...?     ?El reloj el reloj el reloj el re.. Ahhh?
e|--------------------------------------------------------|-
B|--------------------------------------------------------|-
G|--------------------------------------------------------|-
D|--5--5--5--5--5--5--5--7--7--7--7--9--10-11-12--13--14--|-
A|--3--3--3--3--3--3--3--5--5--5--5--7--8--9--10--11--12--|-
E|--------------------------------------------------------|-

SOLO 1
e|----5----5---5---5---5----------|-12-10-9----9-----------------------|-
B|----5----5---5---5---5----------|---------12b-12-10-12-10-9-10--9h10-|-
G|-7b---7b---7b--7b--7b----7b-5---|------------------------------------|-
D|------------------------------7-|------------------------------------|-

e|-----12---------8-------------------------------------|-
B|-12b---12b--10--8-10--10h8--10------5-----------------|-
G|------------------------------------5---5--7--7b-5----|-
D|--------------------------------5h7---7------------7--|-

                 X3
e|-5-5----5---5--5--5-----------------------------------------------|-
B|------8b---8b-8b-8b-------------8-------8-----8-----8-----8-----8-|-
G|---------------------5-5-5--7h9-9---7h9-9-7h9-9-7h9-9-7h9-9-7h9-9-|-
D|----------------------7-7-----------------------------------------|-

e|-8-----------------------------------------|-
B|-8--10--10h8--10---------5-----------------|-
G|-------------------------5---5--7--7b-5----|-
D|---------------------5h7---7------------7--|-


SOLO 2
   ESTA PARTE VA RAPIDO
e|-9--9--9--9--9--10-10-10-10-10-11-11-11-11-11-12-12-12-12-12-|--
B|-10-10-10-10-10-11-11-11-11-11-12-12-12-12-12-13-13-13-13-13-|--
G|-9--9--9--9--9--10-10-10-10-10-11-11-11-11-11-12-12-12-12-12-|--
D|------X4-----------------------------------------------------|--

e|---0-0----0-0----0---0------------8-----------------------------------|-
B|---5-5----5-5----5---5----5-------8-10--10h8-10--5---5--5--5--5-------|-
G|-7b-----7b-----7b--7b--7b-7b-5-------------------7b--7b-7b-7b-7b--5---|-
D|-------------------------------7------------------------------------7-|-

e|---------------------------------------------|---------------|--
B|---------------------------------------------|---------------|--
G|-2--2-4b--4b--2-------2--2-4b--4b-2-4b-2-----|--7b--7b--5-7--|--
D|------------------2------------------------2-|---------------|--
A|--0---------------0----0-------------------0-|---------------|--
E|---------------------------------------------|---------------|--

 IGUAL ACA CONVIENE IMPROVISAR ALGO MAS ELABORADO
e|----5-------5--------------------------------|----------------|--
B|-----8h5-----8h5-----------------------------|----------------|--
G|-7b------7b------7b--7h5-7h5-----------------|----------------|--
D|------------------------7---7h5--------5-6-7-|--555555-222222-|--
A|-------------------------------7h5h7---------|--333333.000000-|--
E|---------------------------------------------|----------------|--

ES FACIL
HaY QuE PrAcTiCaR NoMaS, CoMo SiEmPrE
!!!!!!!!!!!!!!!!!!!!!!!!!!!!!!!!!!!!!!!
!!!!!!AGUANTE LOS GARDELITOS!!!!!!!!!!!
!!!!!!!!!!!!!!!!!!!!!!!!!!!!!!!!!!!!!!!
Suggest correction
Give kudos to tab author, rate the tab!
1 2 3 4 5
comments
print report bad tab
guest
You may want to rate the tab now too:
select rating
Wanna post a correction for this tab? Suggest correction