Oops, an error
Loading. Please wait.

El Sobreviviente Tab

20 views 1 this week
no commentswrite comment
1 2 3 4 5
3 more votes to show rating
add to favorites
launch autoscroll
font size
0
reset
how to read this tab
guitar tuner
×
Best way to learn
"El Sobreviviente"
Autoscroll
slow
fast
+/-
esc
set tempo
stop
MI SEGUNDO APORTE PARA LOS GARDELES
EL SOBREVIVIENTE

INTRO
e|---------------------------0---------------0-0-0-0--|-
B|-----------------------------3-------------0-0-0-0--|-
G|-------------------------------2--------------------|-
D|-------2----------4-2------------0------------------|-
A|---0h2--------0h2-----------------------------------|-
E|-3----------0-----------------------3-4-5-----------|-

e|--------------------------------------------------|-
B|-0---0-------0---0-------0---0-------0---0--------|-
G|-0-----0-----0-----0-----0-----0-----0-----0---0--|-
D|-2-------2---0-------0-1-2-------2---0-------0----|-
A|--------------------------------------------------|-
E|--------------------------------------------------|-

e|--------------------------|-
B|--------------------------|-
G|--------------------------|-
D|-2--2--0--2-0--2-0---2-0--|-
A|-2--2--2--2-2--2-2---2-2--|-
E|-0--0--3b-0-3b-0-3b--0-3b-|-

VERSO
e|-0----------0------|--10-10-10-10--7--7-7---10-X-10-X-7-X-7-|-
B|-0----------0------|--10-10-10-10--8--8-8---10-X-10-X-8-X-8-|-
G|-0----------0------|----------------------------------------|-
D|-------------------|----------------------------------------|-
A|-RASGUIDO----------|----------------------------------------|-
E|-------------------|----------------------------------------|-

Te vi muy preocupado
Pasar por la ciudad
Pensando en tantas cosas
Que no podes comprar
El tiempo no te alcanza
Dios te hace dudar
Y las bombas atómicas
Están por estallar.

El miedo de este mundo es esta realidad
Los hombres se alejan
No quieren perdonar
El pájaro entre rejas
No puede cantar
Banderas y fronteras
No te dejan amar.

Si todas estas mierdas
No te hacen reaccionar
Es porque estás tan loco
Que no vas a escuchar
El llanto de tu hijo
Que queda sin hogar
No juegues con el tiempo
Que el tiempo se te va
Hoy puede ser el día
En que vamos a explotar

  ?Y no podrás    resistir?
   Em             C
e|-0--------------0---0-----------------|-
B|-0--------------1-----1-----3h1---1---|-
G|-0--------------0-------0-------0---0-|-
D|-2--------------2---------2-----------|-
A|-2--------------3---------------------|-
E|-0------------------------------------|-

e|-----------------------------|-----|---------|-
B|-----------------------------|-12--|-12------|-
G|-----------------------------|-14b-|-14b--12-|-
D|---------------------5---5---|-----|---------|-
A|-2--2--2--2-2--2-2---3---3---|-º1--|---º2----|-
E|-0--0--3b-0-3b-0-3b----------|-VEZ-|---VEZ---|-

C      D5                 A  (NO ESTOY MUY SEGURO)
  A LA guerra...   del final

  SOLO
e|---------------------------------12----12-14-15-14-12-10h12-
B|---------------15----------------13-------------------------
G|-12-14b-12-14b---14b--12-14-12---14-------------------------
D|------------------------------14----------------------------

e|-------15-17--15-17b--17-15-17b--|--
B|-15h17---------------------------|--
G|---------------------------------|--
D|---------------------------------|--

e|-------------------------------------------------|----------|-
B|-15h17h15-13-13h15h13-12-12h13h12-10-10h12h10-5--|--[5]-----|-
G|-------------------------------------------------|-----[5]--|-
D|-------------------------------------------------|----------|-

e|-------------------------------|--
B|----------------15-------------|--
G|-14b-14-12---14b----14b-14-12--|--
D|-------------------------------|--

e|-------------------------------------------------|-
B|-15h17h15-13-13h15h13-12-12h13h12-10-10h12h10-5--|-
G|-------------------------------------------------|-
D|-------------------------------------------------|-

LISTO
AGUANTE LOS GARDELES!!!!!!!!!!!
Suggest correction
Give kudos to tab author, rate the tab!
1 2 3 4 5
comments
print report bad tab
guest
You may want to rate the tab now too:
select rating
Wanna post a correction for this tab? Suggest correction