Oops, an error
Loading. Please wait.

El Tanguito Tab

version 1
version 1

Whole song

38 views 12 this week
no commentswrite comment
1 2 3 4 5
3 more votes to show rating
add to favorites
launch autoscroll
font size
0
reset
how to read this tab
guitar tuner
×
Best way to learn
"El Tanguito"
Autoscroll
slow
fast
+/-
esc
set tempo
stop

1|---8-7-5--8-7-5-----8-7-5--8-7-5-----5-5-5-5--7-8-7--5--7-8-7---10-10-10-10---8-7-5-5/7-------|
2|-5--------------5-5----------------3----------------------------------------------------------|
3|----------------------------------------------------------------------------------------------|
4|----------------------------------------------------------------------------------------------|
5|----------------------------------------------------------------------------------------------|
6|----------------------------------------------------------------------------------------------|

1|-12-12-12-12--10-10-10-10--8-8-8-10-8--7-8-7-8-7-8-7/12----3-5-3-5-3-5-3-3---3-5-3-5-3-5-3-0--|
2|----------------------------------------------------------------------------------------------|
3|----------------------------------------------------------------------------------------------|
4|----------------------------------------------------------------------------------------------|
5|----------------------------------------------------------------------------------------------|
6|----------------------------------------------------------------------------------------------|

1|-5-5-5-5--7-8-7--5--7-8-7---10-10-10-10---8-7-5-5/7----12-12-12-12--10-10-10-10--8-8-8-10-8---|
2|----------------------------------------------------------------------------------------------|
3|----------------------------------------------------------------------------------------------|
4|----------------------------------------------------------------------------------------------|
5|----------------------------------------------------------------------------------------------|
6|----------------------------------------------------------------------------------------------|

1|---5--7-8-7-5-3-5----5------------------------------------------------------------------------|
2|-5-----------------5--------------------------------------------------------------------------|
3|----------------------------------------------------------------------------------------------|
4|----------------------------------------------------------------------------------------------|
5|----------------------------------------------------------------------------------------------|
6|----------------------------------------------------------------------------------------------|

Fin.........


especatacular punteo de Los Gardelitos espero que les sirva!! Saludos a todos mis amigos
de Rio Grande Tierra del Fuego desde Rosario!! Si tenes alguna correccion mandala a mi mail.....
Saludos para Rodrigo.T, Gaston.E(la Plata)Karina.C,Nico.R,Emma.E,Franco.T,Laura.A.
Gardelitos por favor Vuelvan a Rosario!!
Suggest correction
Give kudos to tab author, rate the tab!
1 2 3 4 5
comments
print report bad tab
guest
You may want to rate the tab now too:
select rating
Wanna post a correction for this tab? Suggest correction