Oops, an error
Loading. Please wait.

El Ultimo Hombre Del Bar Bass Tab

46 views 1 this week
no commentswrite comment
1 2 3 4 5
3 more votes to show rating
add to favorites
launch autoscroll
font size
0
reset
guitar tuner
×
Best way to learn
"El Ultimo Hombre Del Bar"
Autoscroll
slow
fast
+/-
esc
set tempo
stop
Dejo el tema de los gardeles el ultimo hombre del bar la versión
en vivo del cd ahora es nuestra la ciudad.


Donde te metiste nena ......
G|---------------------------------------------------------|
D|----------------------------------------------4-4-5-5-6-7|
A|-----------------------------5-3-2-3-2-3-5-5-------------|
E|-5-3-2-3-2-3-5-5-3-2-3-2-3-------------------------------|

los repite varias veces


estribillo

soy el ultimo hombre .....

G|---------6--------------4------------------------------|
D|-----6-9----------4-4-7------------------7-5---7-5-----|
A|--7----------5-5-----------------------------7-----7---|
E|-----------------------------5--5--3--5----------------|


Escuchá la canción para saber el ritmo.


Cualquier duda o sugerencia manden un mail o agreguenme.
gonzy_rnr@
Suggest correction
Give kudos to tab author, rate the tab!
1 2 3 4 5
comments
print report bad tab
guest
You may want to rate the tab now too:
select rating
Wanna post a correction for this tab? Suggest correction