Oops, an error
Loading. Please wait.

El Ultimo Hombre Del Bar Tab

27 views 1 this week
no commentswrite comment
1 2 3 4 5
3 more votes to show rating
add to favorites
launch autoscroll
font size
0
reset
how to read this tab
guitar tuner
×
Best way to learn
"El Ultimo Hombre Del Bar"
Autoscroll
slow
fast
+/-
esc
set tempo
stop
Intro:

E-|-------------------5--5--5--5------------------------------|
B-|-------------------5--8--8--7------------------------------|    x 2
G-|-------------------6--6--6--6------------------------------|
D-|------7--7--7------7--5--5--5----7--7--9--7--9--7--7--9----|
A-|------7--7--7------7--7--7--7----5--5--5--5--5--5--5--5----|
E-|------5--5--5------5--5--5--5------------------------------|


(Cuando están en A5, antes de pasar a D5
hace un deslizamiento 2 veces de G#5 a A5
durante las estrofas NO en estribillo).

A5
Donde te metiste nena
                   D5
no te puedo encontrar
A5
toda la noche te estube
              D5        riff 1
esperando en el bar
A5
Ya son las seis
                            D5
esta cerrando y no pude bajar

E5             D5
Soy el ultimo hombre
                 A5
que queda en el bar
E5                  D5
hay si tan solo supiera
               A5
donde iré a parar.

Pero no tengo dinero
                     Riff 2
ni siquiera un lugar
estoy tirado en la calle
todo me sale mal, (nadie me quiere)
solo un poquito de amor
me podría salvar.

Pero me dejaste tirado
y me las vas a pagar  [turra]
Soy el ultimo idiota
que queda en el bar.

Riff 3

E|-0--2-3-5-3-2-3-2-3-5-5-3-2-3-2-3-5-5-3-2-3-2-3-| x 2

Riff 1

E-|-------------------------------------------------8-8-8--|
B-|---------------5b-----5--5-----4/5/4/5/4/5/4/5---7-7-7--|
G-|----7ba--p5----5b-----5--5-----4/5/4/5/4/5/4/5----------|
D-|------------7------7--------7---------------------------|
A-|--------------------------------------------------------|
E-|--------------------------------------------------------|

Riff 2

E-|-----------------------------|
B-|---------------5b-----5--5---|
G-|----7ba--p5----5b-----5--5---|
D-|------------7------7--------7|
A-|-----------------------------|
E-|-----------------------------|

Los arreglos los saque de oído ustedes sabrán si hay
que hacerle alguna corrección, aguante el Lujanero.
Suggest correction
Give kudos to tab author, rate the tab!
1 2 3 4 5
comments
print report bad tab
guest
You may want to rate the tab now too:
select rating
Wanna post a correction for this tab? Suggest correction