Oops, an error
Loading. Please wait.

Envuelto En Llamas Tab

31 views 1 this week
no commentswrite comment
1 2 3 4 5
3 more votes to show rating
add to favorites
launch autoscroll
font size
0
reset
how to read this tab
guitar tuner
Autoscroll
slow
fast
+/-
esc
set tempo
stop
Hola gente! Aca les dejo la intro, el puente y el solo de Envuelto
Las notas no las dejo pque estaban perfectas nada mas faltaban los punteos
Cualquier duda o consulta e23g11t89@
Edgar.

Intro:

e|----5----7-----4--------0---|
B|---7----9-----5-----3----2--|
G|--6----8-----4-----2------1-|
D|-7----9-----6-----4---------|
A|-----------4-----2----0-----|
E|----------------------------|

Eli:

E|-------------2...2...2-2---------4-4-4-|
B|-------------3...3...3--3--------5-5-5-|
G|-------------2...2...2---2-------4-4-4-|X2
D|-------------4...4...4-----4/7-6-6-6-6-|
A|-0-2-2h4-2-0-2...2...2-----------4-4-4-|
E|---------------------------------------|

Korneta(Electroacustica): sobre la base de Eli(la q esta arriba)

e|-----------------4h5-4----|------------------4h5-4-5-7-4----|
B|-------------5---------5--|--------5---5-7-7-------------5--|
G|--------------------------|----4-6---6----------------------|
D|--------------------------|-4h6-----------------------------|
A|--------------------------|---------------------------------|
E|--------------------------|---------------------------------|

Solo: Eli
e|-/5-5-5-5-5-5-7-9--9--9--10/12-12-12-10-9-9h10-9-9h10-10-9-9h10-10-|
B|-/7-7-7-7-7-7-9-10-10-10-------------------------------------------|
G|-------------------------------------------------------------------|
D|-------------------------------------------------------------------|
A|-------------------------------------------------------------------|
E|-------------------------------------------------------------------|

e|-9h10p9-7h9p7-5h7p5------------------------|
B|--------------------7-5-----------5-7br-5--|
G|------------------------6-----4-6--------6-|
D|--------------------------4h6--------------|
A|-------------------------------------------|
E|-------------------------------------------|

e|/5-5-5-5-5-7-9--9--9--/17-16-17-17/19-17-16-----------------------------
B|/7-7-7-7-7-9-10-10-10----------------------17-17/19-19-17h19-19-19-19h17
G|------------------------------------------------------------------------
D|------------------------------------------------------------------------
A|------------------------------------------------------------------------
E|------------------------------------------------------------------------

e|---------------------------|
B|-/19-17--------------------|
G|--------18-18-16-----16-18-|
D|-----------------/18-------|
A|---------------------------|
E|---------------------------|

Espero q les sirva, esta perfecto

Korneta not dead!!!
Suggest correction
Give kudos to tab author, rate the tab!
1 2 3 4 5
comments
print report bad tab
guest
You may want to rate the tab now too:
select rating
Wanna post a correction for this tab? Suggest correction