Oops, an error
Loading. Please wait.

Estamos Podridos Chords

24 views 1 this week
no commentswrite comment
1 2 3 4 5
3 more votes to show rating
add to favorites
launch autoscroll
font size
0
reset
transpose
0
reset
simplify chords
display chords
guitar tuner
×
Best way to learn
"Estamos Podridos"
Autoscroll
slow
fast
+/-
esc
set tempo
stop
e------------------------------------------
B------------------------------------------
G-.----------------------------------------
D-.----------------------------------------
A--5--5-5-3--5--5-5-3--5--5-5-3-5-3--------
E-----------------------------------6-5----


e------------------------------------------
B------------------------------------------
G------------------------------------------.
D------------------------------------------.x3
A----------------------------------3-3-----
E--3--3-3-1--3--3-3-1--3-3-5-5-6-6---------


e------------------------------------------
B------------------------------------------
G------------------------------------------
D------------------------------------------
A-5--5-5-3--5--5-5-3--5--5-5-3-5-3---------
E----------------------------------6-5-----


e------------------------------------------
B------------------------------------------
G------------------------------------------
D------------------------------------------
A---------------------------------3-3------
E--3--3-3-1--3--3-3-1-3-3-5-5-6-6----------

  D5
Estamos podridos
De los programas de la televisión
  G5
Estamos aburridos
Nadie comprende nuestra insatisfacción
D5
Gordas puritanas
Y todo ese fuego amoral
G5
Ondas plutonianas
Y todo el terror nuclear
 F           C
Aun quedan miles de estrellas
Gm             Dm
 Donde podemos escapar
F            C
Nena tu eres la mas bella
Gm              A7
Pero creo que es el final

Estoy pensando en Tutankamon
Pero creo que es el final

CUALQIER DUDA ESCRIBANME
SALUDOS A CHAVO(TAQUITO),LUCHOMERO Y LEO EL OBESO
AGUANTE CUYAYA CARAJO.
Suggest correction
Give kudos to tab author, rate the tab!
1 2 3 4 5
comments
print report bad tab
guest
You may want to rate the tab now too:
select rating
Wanna post a correction for this tab? Suggest correction