Oops, an error
Loading. Please wait.

Estamos Podridos Tab

26 views 1 this week
no commentswrite comment
1 2 3 4 5
3 more votes to show rating
add to favorites
launch autoscroll
font size
0
reset
how to read this tab
guitar tuner
Autoscroll
slow
fast
+/-
esc
set tempo
stop
Help us to improve Ultimate-Guitar.com Take our survey!
×
intro (D5-C5)x4 Bb5 (G5-F5)x2 G5-A5-A#5-C5

Aca esta graficado

   D5C5 D5C5 D5C5 D5C5Bb5 G5F5 G5F5  G5 A5 A#5 C5
1|-----------------------------------------------|x4
2|-----------------------------------------------|
3|-----------------------------------------------|
4|-77-5-77-5-77-5-7-5-3-----------------------55-|
5|-55-3-55-3-55-3-5-3-1---55-3-55-3--55-77-88-33-|
6|------------------------33-1-33-1--33-55-66----|


El tema es con este punteo
Parte A
1|-----------------------------------------------------------------------------------------|
2|-----------------------------------------------------------------------------------------|
3|-----------------------------------------------------------------------------------------|
4|-----------------------------------------------------------------------------------------|
5|-5-5-3-5--5-3-5--5-3--8-8-7-5---5-5-3-5--5-3-5--3-1-0------------------------------------|
6|-----------------------------------------------------------------------------------------|
parte B
1|-----------------------------------------------------------------------------------------|
2|-----------------------------------------------------------------------------------------|
3|-----------------------------------------------------------------------------------------|
4|-----------------------------------------------------------------------------------------|
5|---------------------------------------------------3-------------------------------------|
6|-3-3-1-3--3-1-3--3-1--6-6-5-3--3-3-1-3--3-1-3--5-6---------------------------------------|

Parte A
Estamos podridos
de los programas de la television
Parte B
estamos aburridos
nadie comprende nuestra insatisfaccion
Parte A
gordas puritanas
y todo ese fuego amoral
Parte B
ordas plutonianas
y todo ese terror nuclear

F             C               Ab             G
aun quedan miles de estrellas donde podemos escapar
Bb            C            A             D
nena tu eres la mas bella pero creo que es el final....

intro x4

Estamos podridos
de los programas de la television
estamos aburridos
nadie comprende nuestra insatisfaccion
gordas puritanas
y todo ese fuego amoral
ordas plutonianas
y todo ese terror nuclear


aun quedan miles de estrellas donde podemos escapar
estoy pensando en Tutankamon pero creo que es el final....


Rosario es el Rocanroll
Korneta Not Dead!
Un Saludo a mis amigos Rodrigo T. Gaston E. Emmanuel E.(Mendoza) suerte.......
Y mi noviecita Karina un besito te amo!
Suggest correction
Give kudos to tab author, rate the tab!
1 2 3 4 5
comments
print report bad tab
guest
You may want to rate the tab now too:
select rating
Wanna post a correction for this tab? Suggest correction